Give Kudos?
Are you sure you want to give kudos to aussief?

Add To Songbook?
Are you sure you want to add this song to your songbook?


3,412 bands | 16,395 songs
Search: Register FREE! | Login
Browse Songs:
Browse Bands:
Tool Panel
Discuss This Song

1 2 3 4 5





Cold Chisel - Forever Now (Tab)
Submitter: aussief (67) on 10/1/09 2 comments
Month Views: 47 | Total Views: 12,060
Help! We need a moderator for this artist. | Report This Song?
Song Tools

Comment

Songbook

Kudos

Show Chords

Print

Words and Music by Steven Prestwich

INTRO
      A  B  C#m   A  B  E

  A          B            C#m7                A          B            C#m7
E|---------|------------|-------------|-----|---------|-------------|-----------|
B|-------7-|------------|-------------|-----|-------7-|-------------|-----------|
G|----6----|--8------4--|-------------|-----|----6----|--8---------4|-----------|
D|-7-------|------6-----|--4---6---6--|-----|-7-------|------6--4---|-6----6--4-|
A|---------|------------|-------------|-----|---------|-------------|-----------|
E|---------|------------|-------------|-----|---------|-------------|-----------|
   C#m      A          B                C#m7  Bm         E    E/G#
E|--------|----------|----------------|-5--------------|-------------------|
B|--------|-------7--|-----------5--7-|----8-----------|----------5--------|
G|--------|----6-----|-8---8--8-------|-------6--------|-------6------8----|
D|-6------|-7--------|----------------|----------6-----|-------------------|
A|-----6--|----------|----------------|-------------9--|-7-----------------|
E|--------|----------|----------------|----------------|-------------------|

   A              B
E|--------------|--------------------|
B|------------7-|-------------5---7--|
G|-6------6-----|-8--8--8--8---------|
D|----7---------|--------------------|
A|--------------|--------------------|
E|--------------|--------------------|

E 
Taking her seat at the bar
E                         A  B
She don't talk to anyone~~~~~~
E
Plane leaving soon for afar
                     E  B    Bsus4  B  C#m
Where she don't know anyone~~~~~~~~~
                   D
She thinks of her precious time
C#m                 B
There's no-one she leaves behind
           B         A     A/G#  F#m7
Who could change her mind
                     A        B    F#m7
Is this the way it's gonna be forever
                     A        B    F#m7
Is this the way it's gonna be forever
                     A
Is this the way it's gonna be
   B    E   Esus4  E
Forever now
E
Take a whole life's lonliness
A       B           E
Wrap it up in some tenderness
A       B           E
Send it off to some emptiness
A    B       E    Esus4  E
With all my love
          E
It's only you and me
A            B         E
There'll be nothing we need to see
A    B             F#m
Only one thing can set you free
A   B      E   Esus4  E
Is all my love
E
Making his way down the stairs
E                               A B
He can't help but looking back
E                          E     B     Bsus4  B  C#m
Thinks of the things that they shared
                    D
There'll be no more turning back
C#m              B
He thinks of the day they met
                    B       A    
The words that she said of love
C#m      B
He just can't forget
F#m7              A         B  F#m7                 
Just the way they wanna be forever
                  A         B  F#m7
Just the way they wanna be forever
                 A
Tell me it will always be
   B    E    Esus4 E
Forever now
                     E
Take a whole life's lonliness
A       B            E
Wrap it up in some tenderness
A       B            E
Send it off to some emptiness
A     B      E    Esus4 E
With all my love
          E
It's only you and me
A            B         E
There'll be nothing we need to see
A    B             F#m
Only one thing can set you free
A   B      E    Esus4  E
Is all my love
           E
It's only you and me
A            B          E
There'll be nothing we need to see
E                  F#m
Only one thing can set you free
A   B       E       
Is all our love, oh yeah oh yeah

An F. K. Tab,, Enjoy!!
 Comments (click here to add a non-facebook comment)
Nice job. KK.
-kraziekhat | 10/2/2009
Sounds good to me. Well done. LB.
-fishburn | 10/2/2009
Home | FAQs | Privacy | Terms | Contact
Top 100 Tab Sites