Give Kudos?
Are you sure you want to give kudos to aussief?

Add To Songbook?
Are you sure you want to add this song to your songbook?


3,408 bands | 16,377 songs
Search: Register FREE! | Login
Browse Songs:
Browse Bands:
Tool Panel
Discuss This Song

1 2 3 4 5





Cliff Richard - When The Girl In Your Arms (Tab)
Submitter: aussief (84) on 12/22/12
Month Views: 27 | Total Views: 4,330
Moderator: kraziekhat | Report This Song?
Song Tools

Comment

Songbook

Kudos

Show Chords

Print

Songwriters: BENNETT, ROY C. / TEPPER, SID

INTRO

             Bb               C7
E|---------|-------|--------|-3------|
B|----3--4-|-6-----|---4--6-|--------|
G|---------|-------|--------|--------|
D|---------|-------|--------|--------|
A|---------|-------|--------|--------|
E|---------|-------|--------|--------|


         Bb
When the girl in your arms
       Eb          C7
Is the girl in you heart
F7                      Bb
Then you have got everything
Bb
When you are holding the dream
              Eb                 C7
You have been dreaming you would hold
F7                  Bb    Bb7
You're as rich as a king

   Eb 
So hold her tight 
    Bb
And never let her go
C7
Day and night 
        F7
Let her know  You love her so
         Bb
With the love of your life 
           Eb         C7
Spend the lifetime of love
          F7            Bb    C7  F7
Make her yours for evermore

         Bb                 Eb        C7        F7                  Bb
E|-----|---------|-----6-5|-3-------|-3-------|-5---5-|-5----6--8-|-6--3-6-3----|
B|-3-4-|-6---3-4-|-6------|-----4-6-|---------|-------|-----------|-----------6-|
G|-----|---------|--------|---------|---------|-------|-----------|-------------|
D|-----|---------|--------|---------|---------|-------|-----------|-------------|
A|-----|---------|--------|---------|---------|-------|-----------|-------------|
E|-----|---------|--------|---------|---------|-------|-----------|-------------|

   Eb
So hold her tight 
    Bb
And never let her go
C7
Day and night 
        F7
Let her know You love her so
         Bb
With the love of your life 
           Eb          C7
Spend the lifetime of love
         F7         Bb
Make her yours for evermore
          F7        Bb       C7  F7  
Make her yours for evermore

An F. K. Tab,,,,Enjoy!!!!!
 Comments (click here to add a non-facebook comment)
Home | FAQs | Privacy | Terms | Contact
Top 100 Tab Sites