Give Kudos?
Are you sure you want to give kudos to aussief?

Add To Songbook?
Are you sure you want to add this song to your songbook?


3,412 bands | 16,398 songs
Search: Register FREE! | Login
Browse Songs:
Browse Bands:
Tool Panel
Discuss This Song

1 2 3 4 5





Cliff Richard - The Young Ones (Tab)
Submitter: aussief (82) on 8/12/14 1 comment
Month Views: 88 | Total Views: 3,286
Moderator: kraziekhat | Report This Song?
Song Tools

Comment

Songbook

Kudos

Show Chords

Print

Words and Music by Roy Bennett and Sid Tepper

INTRO

   NC         G                       Em                       Am
E|--7-5-----|------------|----------|-----------|----------|-------------|
B|------8-5-|-8----8---8-|--8-7-5---|-5---5---5-|--5-------|-------------|
G|----------|------------|--------7-|-----------|----7-5-4-|---5---5---5-|
D|----------|------------|----------|-----------|----------|-------------|
A|----------|------------|----------|-----------|----------|-------------|
E|----------|------------|----------|-----------|----------|-------------|

               D
E|-----------|-----------|-----------|
B|-----------|-----------|-----------|
G|---5-4-----|-----------|-----4-7-4-|
D|-------7-5-|-7---7---7-|---7-------|
A|-----------|-----------|-----------|
E|-----------|-----------|-----------|

     G
The young ones
                    Em
Darling, we're the young ones
         G
And the young ones
               Em
Shouldn't be afraid
    G     D
To live, love
G                   C
While the flame is strong
    G 
For we may not be
     D               G    C  D
The young ones very long

   G
Tomorrow
                 Em
Why wait until tomorrow
        G
'Coz tomorrow
                 Em
Sometimes never comes
    G   D
So love me
G                     C
There's a song to be sung
         G
And the best time
       D                   G
Is to sing it while we're young

 C
Once in every lifetime
G
Comes a love like this
A
I need you,
A
You need me
D                D7
Oh, my darling, can't you see

      G
That young dreams
                    Em
Should be dreams together
     G
And young hearts
              Em
Shouldn't be afraid
     G    D
And some day
 G                   C
When the years have flown
          G
Darling, then we'll teach
     D                G
The young one of our own

(REPEAT INTRO)

 C
Once in every lifetime
 G
Comes a love like this
A
I need you,
A
You need me
D                D7
Oh, my darling, can't you see
      G
That young dreams
                    Em
Should be dreams together
     G        
And young hearts
               Em
Shouldn't be afraid
     G    D
And some day
 G                   C
When the years have flown
          G     
Darling, then we'll teach
     D               G
The young one of our own

(REPEAT BAR 1&2 OF INTRO)

 An F. K. Tab,,,Enjoy!!!!!!
 Comments (click here to add a non-facebook comment)
Great tab!! KK.
-kraziekhat | 8/12/2014
Home | FAQs | Privacy | Terms | Contact
Top 100 Tab Sites