Give Kudos?
Are you sure you want to give kudos to danielcraggs?

Add To Songbook?
Are you sure you want to add this song to your songbook?


3,383 bands | 16,157 songs
Search: Register FREE! | Login
Browse Songs:
Browse Bands:
Tool Panel
Discuss This Song

1 2 3 4 5





Christmas Songs - I Saw Three Ships (filled Out Version) (Tab)
Submitter: danielcraggs (3) on 12/12/04
Month Views: 55 | Total Views: 13,031
Moderator: mallareski | Report This Song?
Song Tools

Comment

Songbook

Kudos

Show Chords

Print

Firstly, let me say this is just a modification of WildCard76's
version of this song. Whilst it was very good, I messed around with it
with a few notes here and there, so I thought I'd share with you how I
play it. :-)

      (C)      (G7)    (C)      (G7)      (C)           (G7)

E-------------------0--3-----0--------1---0----------0-----------------
B------1---1---3----------------3-------------1--1------3---0----------
G---0----0-------0--------0--------0--------0------0----0-0-----0----0-
D-------------------------------------------------------0-------3------
A------3-------3-------3--------3---------3------3--------------2------
E---------------------------------------------------------------3-3----

  (C)     (G7)    (C)    (G7)    (C)         (G7)(C)  (G7) (C)  *Coda

E--------------0--3----0------1--0---------------0--*--------- --------
B--1---1--3--------------3-------------1--1--3--------3----1-- -0----1-
G----0------0-------0------0-------0-------------0---------0-- ------0-
D--------------------------------------------3--------0----2-- -0----2-
A--3------3-------3------3-------3--------3--2---3---------3-- ------3-
E-----------------------------------------------------3------- -3------
 Comments (click here to add a non-facebook comment)
Home | FAQs | Privacy | Terms | Contact
Top 100 Tab Sites