Give Kudos?
Are you sure you want to give kudos to microsysinc?

Add To Songbook?
Are you sure you want to add this song to your songbook?


3,383 bands | 16,147 songs
Search: Register FREE! | Login
Browse Songs:
Browse Bands:
Tool Panel
Discuss This Song

1 2 3 4 5





Christmas Songs - Auld Lang Syne (Tab)
Submitter: microsysinc (38) on 12/6/10 2 comments
Month Views: 14 | Total Views: 3,158
Moderator: mallareski | Report This Song?
Song Tools

Comment

Songbook

Kudos

Show Chords

Print

Auld Lang Syne  -  Robert Burns (English translation in key of 'C')

  Verse lead riff
   B  C~~  B  C  E~~  D~~  C D~~   E D C~~  C  E  G  A~~
e----------------0~~------------|--0-----------0--3--5~~|
B--0--1~~--0--1-------3~~--1-3~~|----3-1~~--1-----------|
G-------------------------------|-----------------------|
D-------------------------------|-----------------------|
A-------------------------------|-----------------------|
E-------------------------------|-----------------------|

   A  G~~  E E D C~~  D~~  C D~~   E D C~~  A A~~  G C~~
e--5--3~~--0-0------------------|--0--------------------|
B--------------3-1~~--3~~--1-3~~|----3-1~~-----------1~~|
G-------------------------------|-----------2-2~~--0----|
D-------------------------------|-----------------------|
A-------------------------------|-----------------------|
E-------------------------------|-----------------------|
 
  Chorus lead riff
   A  G~~  E E D C~~  D~~  C D~~   A  G~~  E E    G  A~~
e--5--3~~--0-0------------------|--5--3~~--0-0~~--3--5~~|
B--------------3-1~~--3~~--1-3~~|-----------------------|
G-------------------------------|-----------------------|
D-------------------------------|-----------------------|
A-------------------------------|-----------------------|
E-------------------------------|-----------------------|

   A  G~~  E E D C~~  D~~  C D~~   E D C~~  A A~~  G C~~   
e--5--3~~--0-0------------------|--0--------------------|
B--------------3-1~~--3~~--1-3~~|----3-1~~-----------1~~|
G-------------------------------|-----------2-2~~--0----|
D-------------------------------|-----------------------|
A-------------------------------|-----------------------|
E-------------------------------|-----------------------|

Verse 1
       C                 G
Should old acquaintance… be forgot,
    C                F
and never brought to mind…
       C                 G
Should old acquaintance… be forgot,
E   Am       F    G7   C
and days… of auld lang syne.

Chorus
    C           G
For auld… lang… syne… my dear,
    C           F
for auld… lang… syne…
      C               G
We'll take… a cup… of kindness yet,
E   Am    F  G7  C
for auld… la…ng… syne.
 
Verse 2
And surely you'll buy your pint cup,
and surely I'll buy mine.
And we'll take a cup of kindness yet,
for auld lang syne.

Repeat Chorus 

Verse 3
We two have run about the slopes,
and picked the daisies fine.
But we've wandered many a weary foot,
since auld lang syne.

Repeat Chorus 

Verse 4
We two have paddled in the stream,
from morning sun 'til dine.
But seas between us broad have roared,
since auld lang syne.

Repeat Chorus

Verse 5
And there's a hand my trusty friend.
And give us a hand of thine.
And we'll take a right goodwill draught,
for auld lang syne.

Repeat Chorus
 Comments (click here to add a non-facebook comment)
Very good tab,, as usual!!!!!!
-aussief | 12/7/2010
In Gaelic, 'Auld Lang Syne,' means' for old
long ago.' Good one. KK.
-kraziekhat | 12/7/2010
Home | FAQs | Privacy | Terms | Contact
Top 100 Tab Sites