Give Kudos?
Are you sure you want to give kudos to aussief?

Add To Songbook?
Are you sure you want to add this song to your songbook?


3,408 bands | 16,377 songs
Search: Register FREE! | Login
Browse Songs:
Browse Bands:
Tool Panel
Discuss This Song

1 2 3 4 5





Chris Montez - The More I See You (Tab)
Submitter: aussief (83) on 10/11/10 2 comments
Month Views: 17 | Total Views: 19,612
Moderator: kraziekhat | Report This Song?
Song Tools

Comment

Songbook

Kudos

Show Chords

Print

THE MORE I SEE YOU
(Mack Gordon / Harry Warren)

Chris Montez - 1966

INTRO
               D6        Bm6                 A     A7    F#
E|-----------|-5--2-0----1-|-------------------|---0-2-0---|-------------------|
B|-4-h-5-3-2-|--------3----|-----3----0--3-h-5-|---------2-|-------------------|
G|-----------|-------------|-------2-----------|-----------|-------2-4-2-h-4-2-|
D|-----------|-------------|-------------------|-----------|----4--------------|
A|-----------|-------------|-------------------|-----------|-------------------|
E|-----------|-------------|-------------------|-----------|-------------------|

   Bm7                 A                 E
E|-------------|---------|-------------|---------------------|---------------|
B|-0-h-2-------|-2---0---|-------------|---------------------|---------------|
G|-------2-2-2-|-1-2-1-2-|---------1-2-|---------------------|---------------|
D|-----0-0-0---|---------|----2-4------|-2-2--2--2-2--2--2-2-|-2-------------|
A|-------------|---------|-------------|---------------------|---------------|
E|-------------|---------|-------------|-0-0--0--0-0--0--0-0-|-0-------------|

            A
The more I see you,
           Bm7       E7 
The more I want you
              A
Somehow this feeling
                Bm7   E7 
Just grows and grows
            C7
With every sigh
                  F7 
I become more mad about you
E7          Am         B7        Bm7
More lost without you and so it goes

         A                 Bm7        E7
Can you imagine how much I love you?
            A                  Em   A
The more I see you as years go by~~~~
            D              Dm       A   A7  F#7
I know the only one for me can only be you~~~~~
               Bm7     E7               A    G  A  E7
My arms won't free you, my heart won't try

           D
I know the only one for me
Dm       A   A7   F#7 
Can only be you~~~~~
               Bm7
My arms won't free you,
E7               A   G  A  E7 
My heart won't try 

An F. K. Tab,,, Enjoy!!!!!

 Comments (click here to add a non-facebook comment)
Perfect..as always. KK.
-kraziekhat | 10/12/2010
golden oldie...excellent tab as always, FK...
-microsysinc | 10/14/2010
Home | FAQs | Privacy | Terms | Contact
Top 100 Tab Sites