Give Kudos?
Are you sure you want to give kudos to EMRLDEYZS?

Add To Songbook?
Are you sure you want to add this song to your songbook?


3,434 bands | 16,529 songs
Search: Register FREE! | Login
Browse Songs:
Browse Bands:
Tool Panel
Discuss This Song

1 2 3 4 5



Chris Gaines - Lost In You (Intro)
Submitter: EMRLDEYZS (60) on 12/16/05
Month Views: 13 | Total Views: 3,922
Help! We need a moderator for this artist. | Report This Song?
Song Tools

Comment

Songbook

Kudos

Show Chords

Print

E|-----------------------|-------------------|
B|-----------------------|---5--------5------|
G|-----------------------|---5--------5------|
D|--2-3--3s5--3--2-------|---7-----7---------|
A|-------------------3s0-|------0--------5---|
E|-----------------------|-------------------|

E|------------5-------|---------------3------|-------------------------|
B|--8----6----6-------|--6-------5----5------|--1----------------------|
G|--5----5------------|--3---3---3----3------|--2----------------------|
D|--7----7------------|--5-------5-----------|--3--2-3--3s5--3--2------|
A|-------5--------3---|----------3-------3---|---------------------3s0-|
E|--------------------|----------------------|--1----------------------|
 Comments (click here to add a non-facebook comment)
Home | FAQs | Privacy | Terms | Contact
Top 100 Tab Sites