Give Kudos?
Are you sure you want to give kudos to jca4jc?

Add To Songbook?
Are you sure you want to add this song to your songbook?


3,430 bands | 16,491 songs
Search: Register FREE! | Login
Browse Songs:
Browse Bands:
Tool Panel
Discuss This Song

1 2 3 4 5



Chevelle - The Red (Tab)
Submitter: jca4jc (0) on 7/28/03
Month Views: 14 | Total Views: 3,071
Help! We need a moderator for this artist. | Report This Song?
Song Tools

Comment

Songbook

Kudos

Show Chords

Print

-|--------------------------------------------|
-|--------------------------------------------|
-|--------------------------------------------|
-|-0----------3--3---3-5-0----------8--8---8--| PLAY TWICE
-|-0----7-5---3--3---3-5-0----7-5---8--8-0-8--|
-|-0--0-----0-3--3-0-3-5-0--0-----0-8--8-0-8-0|

  main verse w/heavy distortion, palm mute

-|--------------------------------------------|
-|--------------------------------------------|
-|--------------------------------------------|
-|------------3--3---3-5-0----------8--8---8-8|
-|-0----7-5---3--3---3-5-0----7-5---8--8-0-8-8|
-|-0--0-----0-3--3-0-3-5-0--0-----0-8--8-0-8-8|


-|-----------------------------------|
-|-----------------------------------|
-|-----------------------------------|
-|------------3--3---3-5-0----------8|
-|-0----7-5---3--3---3-5-0----7-5---8|
-|-0--0-----0-3--3-0-3-5-0--0-----0-8|


  chorus


-|---------------------------|
-|---------------------------|
-|---------------------------|
-|-0----0---0---3------3--3--|
-|-0----0---0---3------3--3--|
-|-0----0---0-0-3--3-3-3--3-3|


-|-----------------------------------------|
-|-----------------------------------------|
-|-----------------------------------------|
-|-10----------10--------10--------10------|
-|-10----------10--------10--------10------|
-|-10----10-10-10--10-10-10--10-10-10-10-10|



-|---------------------------|
-|---------------------------|
-|---------------------------|
-|-0----0---0---3------3--3--|
-|-0----0---0---3------3--3--|
-|-0----0---0-0-3--3-3-3--3-3|


-|-----------------------------------------|
-|-----------------------------------------|
-|-----------------------------------------|
-|-10----------10-----------5/7-7-7-7-7-7-7|
-|-10----------10-----------5/7-7-7-7-7-7-7|
-|-10----10-10-10--10-10-10-5/7-7-7-7-7-7-7|



  THEN PLAY VERSE AGAIN TWICE


  THEN PLAY CHORUS AGAIN


  THEN THE INTERLUDE (not quite a solo)

-|-------------------------------------|
-|-------------------------------------|
-|-------------------------------------|TWICE
-|-------------------------------------|
-|-12-tremelo pick---------------------|
-|----------------10-10-12-tremelo pick|


  THEN PLAY CHORUS AGAIN


  THEN REPEAT VERSE UNTIL IT DOES THIS:


-|---------------------------------|
-|---------------------------------|
-|---------------------------------|
-|-0----------3--3---3-5-0---------|
-|-0----7-5---3--3---3-5-0----7-5--|
-|-0--0-----0-3--3-0-3-5-0--0-----0|


-|------------------------------------|
-|------------------------------------|
-|------------------------------------|
-|-8-8-8-8-8---8-8---------8-8--------|
-|-8-8-8-8-8-0-8-8-x-x-x-x-8-8-x-x-x-x|
-|-8-8-8-8-8---8-8-x-x-x-x-8-8-x-x-x-x|


-|------------------------------------|
-|------------------------------------|
-|------------------------------------|
-|-7-7---------7-7---------0----------|"they say freak...."
-|-7-7-x-x-x-x-7-7-x-x-x-x-0----------|
-|-7-7-x-x-x-x-7-7-x-x-x-x-0----------|
 Comments (click here to add a non-facebook comment)
Home | FAQs | Privacy | Terms | Contact
Top 100 Tab Sites