Give Kudos?
Are you sure you want to give kudos to guitarviper?

Add To Songbook?
Are you sure you want to add this song to your songbook?


3,430 bands | 16,491 songs
Search: Register FREE! | Login
Browse Songs:
Browse Bands:
Tool Panel
Discuss This Song

1 2 3 4 5



Charlie Daniels - The Devil Went Down In Georgia (Tab)
Album: 16 Biggest Hits (2006)
Submitter: guitarviper (10) on 2/18/03
Month Views: 37 | Total Views: 17,938
Moderator: Ray Terry | Report This Song?
Song Tools

Comment

Songbook

Kudos

Show Chords

Print

Devil Went Down To Georgia - Violin parts for guitar
Charlie Daniels Band
Tabbed by Guitarviper

At the end of the intro, tremolo pick while you slide.
To play a note sounding the 26th fret, which is not available on most necks,
play it by fretting the string against the neck position pick-up on your guitar...
this works for me on all of mine, including tele and strat styles.

Intro:
  Dm                                          C
------------------------17--17-19-17----------------------------------17-----------------
-----------17-18--18-20--------------20-18-17-------------17-17-18-20----20-18-17-17-----
--19-18-19------------------------------------17----17-19----------------------------14--
-------------------------------------------------19--------------------------------------
-----------------------------------------------------------------------------------------
-----------------------------------------------------------------------------------------

  Dm          C           Bb           Am         G            A          Dm  A C
------------------------------------------------------------------------------
--15-17-15----13-15-13----12-13-12-------12-----------------------------------
-----------14----------14----------12-14----14----12-14-12-------12-----------
-----------------------------------------------15----------12-15----15-14-12--
------------------------------------------------------------------------------
------------------------------------------------------------------------------

   D5                                       C      A        D5
--------------------------------------12-14-16-17-----19----26t\-22t\-20t\-19t\------
-----------------------------12-14-15--------------------------------------------NH--
--------------------11-13-14-----------------------------------------------------7---
-----------11-12-14------------------------------------------------------------------
--10/12-14---------------------------------------------------------------------------
-------------------------------------------------------------------------------------

After First Chorus:
------------------------17--17-19-17----------------------------------17-----------------
-----------17-18--18-20--------------20-18-17-------------17-17-18-20----20-18-17-17-----
--19-18-19------------------------------------17----17-19----------------------------14--
-------------------------------------------------19--------------------------------------
-----------------------------------------------------------------------------------------
-----------------------------------------------------------------------------------------

------------------------------------------------------------------------------
--15-17-15----13-15-13----12-13-12-------12-----------------------------------
-----------14----------14----------12-14----14----12-14-12-------12-----------
-----------------------------------------------15----------12-15----15-14-12--
------------------------------------------------------------------------------
------------------------------------------------------------------------------

Fiddle Solo:(play with a funky feel)
------------------------------------------------------------------------ 
----------------------------------  \  
------------------------------------  /Play 4 times
--5---------5----------------------- /
----1-3-4-5---5-4--3-1-3-4-5-1-3-1--/

---------------------------------------------------------------------- 
-----------------------------------  ----------------------------2-3-4--  /Then play Gm, Am, Bb, C, C, D5
----------------------1-3-5-------- /
--3-1-3-4-5-0-1-2-3-5--------------/

A C D5

Bridge: (fire on the mountain run..) (another guitar harmonizes)
--/14-p12-14h15-14-12-------------10-12-14-------10-12-14-15-12-15-12-17-15-----------
----------------------12p10----10------------/13----------------------------17-15-13--
----------------------------11--------------------------------------------------------
--------------------------------------------------------------------------------------
--------------------------------------------------------------------------------------
--------------------------------------------------------------------------------------

--15/17----17-17-15--------------------------/8-8-8-----8-----8-----8-------12-12--
--------19----------19-17-15-14-14-14---------------------------------10-----------
--------------------------------------14------------9-9---9-9---9-9------9---------
-----------------------------------------------------------------------------------
-----------------------------------------------------------------------------------
-----------------------------------------------------------------------------------

 (................................play this part twice..........................................)
--13p12-13-15-13-12----12-13p12-13-15-13-12------------------------12-13-15-12-15-17-15-----------
--------------------15---------------------15----13----13----13-15----------------------17-15-----
--------------------14------------------------14----14----14----------------------------------17--
--------------------------------------------------------------------------------------------------
--------------------------------------------------------------------------------------------------
--------------------------------------------------------------------------------------------------

--------------------12-13-15----15-17-15-15----17-15-17-12-13-17-13-------------12--------------
--13----13----13-15----------17-------------17----------------------17-14----12-14-12----10-----
-----14----14-------------------------------------------------------17----14----------14-11-----
--------------------------------------------------------------------------------------------12--
------------------------------------------------------------------------------------------------
------------------------------------------------------------------------------------------------

-----------12-------------------------12-------------------------12---------------------------------
--------10----14p12p10-10----------10----14p12p10-10----------10----14p12p10-10---------------------
-----11----------------11-------11----------------11-------11----------------11-----------9----/10--
--14----------------------12-14----------------------12-14----------------------12-------10-12-/12--
-----------------------------------------------------------------------------------12-12----12------
----------------------------------------------------------------------------------------------------

Ending:
 (................................play this part twice..........................................)
--13p12-13-15-13-12----12-13p12-13-15-13-12------------------------12-13-15----15-17-15-------12--
--------------------15---------------------15----13----13----13-15----------17----------17-15-----
--------------------14------------------------14----14----14--------------------------------------
--------------------------------------------------------------------------------------------------
--------------------------------------------------------------------------------------------------
--------------------------------------------------------------------------------------------------

--13-12-13-15-13-12----12-13-12-13-15-13-12-------------12-15-17-15-13-12-10-8-6-5-10-8-6tr-5--
--------------------15----------------------15----13-15-------------------10-8-6-5-10-8-6tr-5--
--------------------14----------------------14-14--------9-12-14-12-10--9-10-------10----------
--------------------------------------------------10-12----------------------------------------
-----------------------------------------------------------------------------------------------
---------------------------------------
 Comments (click here to add a non-facebook comment)
Home | FAQs | Privacy | Terms | Contact
Top 100 Tab Sites