Give Kudos?
Are you sure you want to give kudos to guitarviper?

Add To Songbook?
Are you sure you want to add this song to your songbook?


3,430 bands | 16,491 songs
Search: Register FREE! | Login
Browse Songs:
Browse Bands:
Tool Panel
Discuss This Song

1 2 3 4 5



Charlie Daniels - The Devil Went Down In Georgia (Intro)
Album: 16 Biggest Hits (2006)
Submitter: guitarviper (10) on 2/18/03 3 comments
Month Views: 20 | Total Views: 9,112
Moderator: Ray Terry | Report This Song?
Song Tools

Comment

Songbook

Kudos

Show Chords

Print

Devil Went Down To Georgia - Intro, (violin for guitar)
Charlie Daniels Band
Tabbed by Guitarviper

At the end, tremolo pick while you slide.
To play a note sounding the 26th fret, which is not available on most necks,
play it by fretting the string against the neck position pick-up on your guitar...
this works for me on all of mine, including tele and strat styles.

Intro:
  Dm                                          C
------------------------17--17-19-17----------------------------------17-----------------
-----------17-18--18-20--------------20-18-17-------------17-17-18-20----20-18-17-17-----
--19-18-19------------------------------------17----17-19----------------------------14--
-------------------------------------------------19--------------------------------------
-----------------------------------------------------------------------------------------
-----------------------------------------------------------------------------------------

  Dm          C           Bb           Am         G            A          Dm  A C
------------------------------------------------------------------------------
--15-17-15----13-15-13----12-13-12-------12-----------------------------------
-----------14----------14----------12-14----14----12-14-12-------12-----------
-----------------------------------------------15----------12-15----15-14-12--
------------------------------------------------------------------------------
------------------------------------------------------------------------------

   D5                                       C      A        D5
--------------------------------------12-14-16-17-----19----26t\-22t\-20t\-19t\------
-----------------------------12-14-15--------------------------------------------NH--
--------------------11-13-14-----------------------------------------------------7---
-----------11-12-14------------------------------------------------------------------
--10/12-14---------------------------------------------------------------------------
-----------------------------------------------------------------------------------
 Comments (click here to add a non-facebook comment)
bull s**t
-guitarman1990 | 2/6/2005
hey will you plz put a sound byte up, awesome song but don't sound right with out this part so i'd like to hear it. thanks

-bwbucs23 | 3/4/2005
Just take it down an octave and see how that sounds.
-KU_isbestever | 5/31/2005
Home | FAQs | Privacy | Terms | Contact
Top 100 Tab Sites