Give Kudos?
Are you sure you want to give kudos to axehappy?

Add To Songbook?
Are you sure you want to add this song to your songbook?


3,408 bands | 16,378 songs
Search: Register FREE! | Login
Browse Songs:
Browse Bands:
Tool Panel
Discuss This Song

1 2 3 4 5





Charlie Daniels - Southern Boy (Solo)
Album: Essential Super Hits (2004)
Submitter: axehappy (117) on 8/7/03
Month Views: 16 | Total Views: 4,272
Moderator: Ray Terry | Report This Song?
Song Tools

Comment

Songbook

Kudos

Show Chords

Print

Charlie Daniels Band  -  Southern Boy  (solo)

By axehappy  -  axehappy at countrytabs.com


***************************************************************************************

bh   =   bend & hold                                        r   =   release bend

b    =   bend                                               p   =   pulloff

/    =   slide up                                           br  =   bend & release

***************************************************************************************



   rake
E--5-----------------------------------------------------0---0-0-0--0-----------
B---8----8-8-8-8-8-8-8-8-----------4-2-0-----------------3/5-5-5-5-3-2p0-0------
G----7bh-7-7-7-7-7-7-7-7r-5b-6p0-2-4-2-0---------------4----------------4-4p2-0-
D---------------------------7-------4---4p2p0-------4-6----------------------4--
A--------------------------------------------4-2-4/6----------------------------
E-------------------------------------------------------------------------------

                                       detune low E to A
E------------------------------------------|
B------------------------------------------|
G------------------------------------------|
D--2-0-------------------------------------|
A-----4-2-0--------------------------------|
E----------2b-2br-0-2b-0-2b-0-3b-0-2b-0\---|

 Comments (click here to add a non-facebook comment)
Home | FAQs | Privacy | Terms | Contact
Top 100 Tab Sites