Give Kudos?
Are you sure you want to give kudos to guitarviper?

Add To Songbook?
Are you sure you want to add this song to your songbook?


3,430 bands | 16,491 songs
Search: Register FREE! | Login
Browse Songs:
Browse Bands:
Tool Panel
Discuss This Song

1 2 3 4 5



Charlie Daniels - In America (Solo)
Album: Full Moon (1990)
Submitter: guitarviper (10) on 2/5/03
Month Views: 20 | Total Views: 7,163
Moderator: Ray Terry | Report This Song?
Song Tools

Comment

Songbook

Kudos

Show Chords

Print

In America - Solo
Charlie Daniels Band
Tabbed by Guitarviper

Solo:
-3-------3------------------------------------------------
-------3---6-3--------------------------------------------
----5b---------6-5-3-0-5-0-3^5^3---5b-5b--4--3------------
---------------------------------5-------------5-0-3-3-5--
----------------------------------------------------------
-3--------------------------------------------------------

-------------------------3----------
-------------3---------3---6-3-6/8--
-2/3-5-3-5b----6-3-5b---------------
------------------------------------
------------------------------------
------------------------------------

--6---6---6-8b--8--6-------6/5----5/4----3----------------------------------------
----8---8-------------8--5-----6-------5---6-3------------------------------------
------------------------------------------------6-5^3-0-5-0-3b--------------------
---------------------------------------------------------------5--3--3-5~~---(5)--
----------------------------------------------------------------------------------
----------------------------------------------------------------------------------
     
-10b-10b-10b-10b-10b-10b-10b-10b---10-----------------------------------------
--------------------------------------13-11-------11-------11-------11--------
--------------------------------------------12^10----10^12----12^10----10-12--
------------------------------------------------------------------------------
------------------------------------------------------------------------------
------------------------------------------------------------------------------

----------------------
----------------------
--12--12---5b--5--5^3-
----------------------
----------------------
----------------------

-------------------------------------------------------------------------
-------------------------------------------------------------------------
-5-5--5b-5^3---3--3---------3-5-5b-5^3-----------------------------3b----
-------------6------5^3--0-------------5-3-5--5/---------0-3-5---3----5--
---------------------------------------------------0-1-3-----------------
-------------------------------------------------3-----------------------

--------------------------------------------6b---------9-8-6-------------------
----------------------------------6--8---6------8-------------8-----6--8~~--8--
---------------------------5---7------------3b---------6-5-3-----7-----5~~--5--
-5-3---------------5-7--8------0--3--5---3------5-------------5--0--3----------
-----5/3--1----------0--1--3---------------------------------------------------
------------3-1-3--3-----------------------------------------------------------
 Comments (click here to add a non-facebook comment)
Home | FAQs | Privacy | Terms | Contact
Top 100 Tab Sites