Give Kudos?
Are you sure you want to give kudos to beaner316?

Add To Songbook?
Are you sure you want to add this song to your songbook?


3,420 bands | 16,455 songs
Search: Register FREE! | Login
Browse Songs:
Browse Bands:
Tool Panel
Discuss This Song

1 2 3 4 5



Charlie Daniels - Drinkin My Baby Goodbye (Tab)
Album: 16 Biggest Hits (2006)
Submitter: beaner316 (2) on 7/30/02
Month Views: 163 | Total Views: 25,821
Moderator: Ray Terry | Report This Song?
Song Tools

Comment

Songbook

Kudos

Show Chords

Print

Key:

h: Hammer	p:  Pull Off	/:  Slide	b: Bend

br: Bend and release	~~~:  Vibrato	x: Muted string

bh: Bend and Hold	rb:  Release Bend	ah:  Artificial Har.

pb: Pre-Bend	pbr:  Pre-bend and release	nh:  Natural Har.
*******************************************************************

I tabbed this song in Drop D tuning (DADGBE)

Intro:

E------------------------------------------------------------------
B------------------------------------------------------------------
G------------------------------------------------------------------
D------0-----0-----0-----3bp0-3bp0----------0-----0-3bp0-3bp0-----0
A--4/5---4/5---4/5---5-------------3p0--4/5---4/5-------------3p0--
D------------------------------------------------------------------
                                                         Fiddle Brk.
E------------------------------------------------------------------
B------------------------------------------------------------------
G------------------------------------------------------------------
D-----------0-----0-----0---3bp0-3bp0---------0-----0--------------
A-0-----4/5---4/5---4/5---5-----------3p0-4/5---4/5---4/5----------
D---3p0------------------------------------------------------------

After the first verse (at approx 00:56):

E------------------------------------------------------------------
B------------------------------------------------------------------
G------------------------------------------------------------------
D------0-----0-----0---3bp0-3bp0---------0-----0----------3bahp0---
A--4/5---4/5---4/5---5-----------3p0-4/5---4/5--------0-3----------
D------------------------------------------------0-3b--------------

E------------------------------------------------------------------
B------------------------------------------------------------------
G------------------------------------------------------------------
D------------------------------------------------------------------
A--3p0-------------------------------------------------------------
D------0-----------------------------------------------------------

Riffs during the second verse:

Are you a Man or a mouse? (approx 1:06)
E------------------------------------------------------------------
B------------------------------------------------------------------
G-------------------------------2ah~~~-----------------------------
D---------------------------0-3------------------------------------
A-----------------------0h3----------------------------------------
D------------------------------------------------------------------

..Moping around the house. (approx 1:12)
E------------------------------------------------------------------
B------------------------------------------------------------------
G------------------------4b-4ah-2h4-2------------------------------
D-------------------------------------3/4-0------------------------
A------------------------------------------------------------------
D------------------------------------------------------------------

...along without. (Approx 1:17)
E------------------------------------------------------------------
B------------------10----8---7---6---5-----------------------------
G------------------------------------------------------------------
D--------------/12----10---9---8---7-------------------------------
A------------------------------------------------------------------
D------------------------------------------------------------------

..Bothers 'ol Al. (approx 1:22)
E------------------------------------------------------------------
B------------------------------------------------------------------
G------------------------------------------------------------------
D----------0-3br-0---0---------------------------------------------
A-----0-3b---------3-----------------------------------------------
D--3b--------------------------------------------------------------

Riffs during the second verse:

..in a bunch (approx. 2:15)
E------------------------------------------------------------------
B------------------------------------------------------------------
G----------------2/4-2ah~~~~---------------------------------------
D--------3-0-3/4---------------------------------------------------
A--0-3-0-----------------------------------------------------------
D------------------------------------------------------------------

..Greyhound bus (approx 2:20)
E------------------------------------------------------------------
B------------------------------------------------------------------
G-------------12bh-12-12-12-12rb-10--7~~~~~------------------------
D------------------------------------------------------------------
A------------------------------------------------------------------
D------------------------------------------------------------------


..Forget about me (approx 2:26)
E---------------------5-5----5-5-----------------------------------
B------------------5--5-5----5-5-----------------------------------
G------------------7b-----7b-----7pbr-5----------------------------
D---------------------------------------7~~~-----------------------
A------------------------------------------------------------------
D------------------------------------------------------------------

..I cant see (approx 2:31)
E------------------------------------------------------------------
B------------------------------------------------------------------
G------------------------------------------------------------------
D--------------------3bp0-3bp0-0-----------------------------------
A-------------0-3b-0-------------3---------------------------------
D----------------------------------0-------------------------------

During the second chorus:

..away (approx 2:42)
E------------------------------------------------------------------
B------------------------------------------------------------------
G------------------------------------------------------------------
D-------------------2/3-3-0---3-3----------------------------------
A---------------------------3-----3--------------------------------
D-----------------------------------3b-0---------------------------

..baby goodbye (approx 2:53 at the key change)
E------------------------------------------------------------------
B------------------------------------------------------------------
G------------------0-----0-----0-----------------------------------
D--------------4/5---4/5---4/5-------------------------------------
A------------------------------------------------------------------
D------------------------------------------------------------------

Outro:

E------------------------------------------------------------------
B------------------------------------------------------------------
G------------------------------------------------------------------
D----------------------5p2-5p2-------------------5p2---------------
A--6/7-7-6/7-7-6/7-7-7---------5-2--6/7-7-6/7-7------5p2-----------
D--------------------------------------------------------5b-2~~----
 Comments (click here to add a non-facebook comment)
Home | FAQs | Privacy | Terms | Contact
Top 100 Tab Sites