Give Kudos?
Are you sure you want to give kudos to aussief?

Add To Songbook?
Are you sure you want to add this song to your songbook?


3,414 bands | 16,404 songs
Search: Register FREE! | Login
Browse Songs:
Browse Bands:
Tool Panel
Discuss This Song

1 2 3 4 5





Carole King - So Far Away (Tab)
Album: Tapestry (1971)
Submitter: aussief (98) on 11/5/12 2 comments
Month Views: 6 | Total Views: 3,910
Moderator: jackshaw3 | Report This Song?
Song Tools

Comment

Songbook

Kudos

Show Chords

Print


Words and Music by Carole King
Intro
F#m7    Gmaj7

   A    Gmaj7
So far away
Dmaj7           Gmaj7                 D
Doesn't anybody stay in one place anymore
Em7            A                Dmaj7
It would be so fine to see your face at my door
Gmaj7           Em7              A     Gmaj7
Doesn't help to know you're just time away

Dmaj7                          Gmaj7
Long ago I reached for you and there you stood
Em7          A7              Dmaj7
Holding you again could only do me good
    Gmaj7        Em7
Oh, how I wish I could
              A    Gmaj7    D
But you're so far away

Bm                   A                Gmaj7
One more song about moving along the highway
Em7               A7              Dmaj7
Can't say much of anything that's new
   F#m                             Em7
If I could only work this life out my way
     A7          Em7      A
I'd rather spend it being close to you

Em7           A   Gmaj7
But you're so far away
Dmaj7                             Gmaj7
Doesn't anybody stay in one place anymore
Em7             A               Dmaj7
It would be so fine to see your face at my door
Gmaj7           Em7            A   Gmaj7
Doesn't help to know you're so far away
D              A7     Gmaj7    D
Yeah    you`re so far away

Bm7                    A               Gmaj7
Traveling around sure gets me down and lonely
Em7             A7              Dmaj7
Nothing else to do but close my mind
  F#m7                             Em7
I sure hope the road don't come to own me
        A        Em7        A7      Em7
There's so many dreams I've yet to find

              A   Gmaj7
But you're so far away
Dmaj7                              Gmaj7
Doesn't anybody stay in one place anymore
            Em7 A               Dmaj7
It would be so fine to see your face at my door
Gmaj7           Em7            A   Gmaj7
Doesn't help to know you're so far away 
D               A   Gmaj7  Em7  G              A   Gmaj7 Dmaj7
Yeah  you`re so far away   Yeah~~~~  you`re so far a---way

Flute Outro
   Dmaj7         Gmaj7       Em7                        Dmaj7
E|-------------|-----------|--------------------------|-------------------------|
B|-12-14-12----|-----------|-----------------------10-|-12-12-10----------------|
G|----------11-|----11-----|--------------11----11----|-----------11------------|
D|-------------|-14----12--|--------12-14----14-------|--------------14-11------|
A|-------------|-----------|-12-14--------------------|--------------------14-12|
E|-------------|-----------|--------------------------|-------------------------|

   Bm7                       F#m          Gmaj7
E|--------------------------|----------|----------------------------------------|
B|--------------------------|----------|----------------------------------10-12-|
G|--------------------------|----------|----------------------------11-12-------|
D|--------------------------|----------|----------11-------11-12-14-------------|
A|-14-12------------------12|----12----|----12-14----12-14----------------------|
E|-------14---14-10-12-14---|-14-------|-14-------------------------------------|

   Dmaj7    Em7               A7                      D
E|--------------------------|-----------------------|---------------------------|
B|-14-10-12-----------------|-----------------------|---------------------------|
G|-----------11-------------|-----------------------|---------------------------|
D|--------------14-12-11----|-11--------------------|---------------------------|
A|-----------------------14-|----12-----------------|-12----12----14-----12-----|
E|--------------------------|-----------14--12---14-|---------------------------|

   An F. K. Tab,,,,,Enjoy!!!!!!!


 Comments (click here to add a non-facebook comment)
She's written many great songs.
Excellent job. KK.
-kraziekhat | 11/6/2012
always loved Carol King's music...another great tab, f.k.
-microsysinc | 11/8/2012
Home | FAQs | Privacy | Terms | Contact
Top 100 Tab Sites