Give Kudos?
Are you sure you want to give kudos to aussief?

Add To Songbook?
Are you sure you want to add this song to your songbook?


3,414 bands | 16,404 songs
Search: Register FREE! | Login
Browse Songs:
Browse Bands:
Tool Panel
Discuss This Song

1 2 3 4 5





Buddy Holly - Maybe Baby (Tab)
Submitter: aussief (98) on 7/9/10
Month Views: 9 | Total Views: 5,253
Moderator: EVILUTION | Report This Song?
Song Tools

Comment

Songbook

Kudos

Show Chords

Print

Words and Music by Charles Hardin and Norman Petty

Intro

   A               F#m            A               F#m            A
E|---------------|--------------|---------------|--------------|---------------|
B|---------------|--------------|---------------|--------------|---------------|
G|------------2--|--------------|------------2--|--------------|-----------2---|
D|-----2--5-5--5-|--------------|-----2--5-5--5-|--------------|-----2-5-5---5-|
A|-0-4-----------|-4-4-4-4--4-4-|-0-4-----------|-4-4-4-4--4-4-|-0-4-----------|
E|---------------|-2-2-2-2--2-2-|---------------|-2-2-2-2--2-2-|---------------|

   D        E        A       D         A      E
E|-----------------|-----------------|--------------------|
B|-----------------|-----------------|--------------------|
G|-2-2-2-1---------|---------2-2-2-2-|--------------------|
D|-4-4-4-2-2-2-2-2-|-2-2-2-0-0-0-0-0-|-2--2---------------|
A|---------2-2-2-0-|-0-0-0-0---------|-0--2--2-2--2-2-2-2-|
E|-----------------|-----------------|-------0-0--0-0-0-0-|

A            F#m
Maybe, baby, I'll have you.
A            F#m
Maybe, baby, you'll be true.
A            Bm7       E7      A   D  A  E7
Maybe, baby, I'll have you for me.~~~~~~~~~

A           B# A   F#m   
It's funny, honey. You don't care.
A          B# A  F#m
You never listen to my prayer.
A            Bm7      E7         A      D  A
Maybe, baby, you will love me someday.~~~~~~~

A7    D7  D
Well, you are the one that Makes me glad.
A
Any other one, that Makes me sad
D
And when some day, You want me, well,
E7
A-I'll be there. Wait and a-see-he-he.

A            F#m
Maybe, baby, I'll have you.
A            F#m
Maybe, baby, you'll be true.
A            B7        E7      A   D  A  E7
Maybe, baby, I'll have you for me.~~~~~~~~~

A7      D7  D
Well-a, you are the one that Makes me glad.
A
Any other one, that Makes me sad
D
And when some day, You want me, well,
E7
A-I'll be there.Wait and a-see-he-he.
A             F#m
Maybe, baby, I'll have you.
A             F#m
Maybe, baby, you'll be true.
A             B7       E7       A
Maybe, baby, I'll have you for me.
A             B7       E7       A   D  A
Maybe, baby, I'll have you for me.~~~~~~~


An F. K. Tab,, ENJOY!!!! 

 Comments (click here to add a non-facebook comment)
Home | FAQs | Privacy | Terms | Contact
Top 100 Tab Sites