Give Kudos?
Are you sure you want to give kudos to dhs64?

Add To Songbook?
Are you sure you want to add this song to your songbook?


3,423 bands | 16,458 songs
Search: Register FREE! | Login
Browse Songs:
Browse Bands:
Tool Panel
Discuss This Song

1 2 3 4 5



Bruce Springsteen - Rosalita (come Out Tonight) (Tab)
Submitter: dhs64 (3) on 12/8/05
Month Views: 28 | Total Views: 5,173
Moderator: EMRLDEYZS | Report This Song?
Song Tools

Comment

Songbook

Kudos

Show Chords

Print

Rosalita (Come Out Tonight) - Bruce Springsteen

|                2x              |
F       Fsus      F      Fsus     F      Fsus     F       Fsus 
---1-------1-----|---1-----1-----|---1-----1---1-|-----1-----1---|
-----1-------2---|-----1-----1---|-----1---------|-1-----1-------|
-------2>3-----3-|-------0-----1-|-------3---2---|---0-----2---0-|
-3---------------|-3-------------|-3-------------|---------------|
-----------------|---------------|---------------|---------------|
-----------------|---------------|---------------|---------------|

|                5x              |
F       Fsus      F      Fsus 
---1-------1-----|---1-----1-----|
-----1-------2---|-----1-----1---|
-------2>3-----3-|-------0-----1-|
-3---------------|-3-------------|
-----------------|---------------|
-----------------|---------------|

F          Bb    F      C               F                Bb  F C
Spread out now Rosie, doctor come cut loose her mama's reins,
F         Bb            F        C       F         Bb      F C
You know playin' Blind Man's Bluff is a little baby's game,
F         Bb           F     C              Bb           F C
You pick up Little Dynamite, Iím gonna pick up Little Gun
   F                   Bb          F        C    F       Bb      F C
And together we're gonna go out tonight and make that highway run
Bb                                                  Am                      Dm
You don't have to call me lieutenant, Rosie, and I don't want to be your son,
     C                                            Bb
The only lover I'm ever gonna need's your soft, sweet little girl's tongue,
Csus   C          Csus    | C Csus | C Csus | C Csus |
And Rosie, you're the one.

Dynamite's in the belfry, baby, playin' with the bats,
Little Gun's downtown in front of Woolworth's tryin' out his attitude on all the cats,
Papa's on the corner waitin' for the bus,
Mama, she's home in the window, waitin' up for us,
She'll be there in that chair when they wrestle her upstairs cause you know we ain't gonna come,
I ain't here on business, baby, I'm only here for fun
And Rosie, you're the one.

    F          Bb        C
Rosalita, jump a little lighter
     F          Bb        C
Senorita, come sit by my fire
        F                Bb             C
I just want to be your lover, ain't no liar
  F                Bb         C  
Rosalita, you're my stone desire.

F     Bb        C         F     Bb        C         F     Bb
---------------|---------|---------------|---------|---------------|
---------------|---------|---------------|---------|---------------|
-5/7-7-5-------|-5vvvvvv-|-5/7-7-5-------|-5-------|-5/7-7-5-------|
---------8-7-8-|---------|---------8-7-8-|---------|---------8-7-8-|
---------------|---------|---------------|---3-3-5-|---------------|
---------------|---------|---------------|---------|---------------|

C           F    Bb         C
-----------|---------------|---------|
-----------|---------------|---------|
-5---------|---------------|---------|
---7>8-7>8-|-7-7-3-5-3-----|---------|
-----------|-----------5-3vvvvvvv----|
-----------|---------------|---------|

Jack the Rabbit and Weak Knee Willie, don't you know they're gonna be there,
Sloppy Sue and Big Bone Billy, they'll be coming up for air,
We're gonna play some pool, skip some school, act real cool, stay out all night, it's gonna feel alright,
Bb                                          C
So Rosie come out tonight, little baby come out tonight
Bb                          Am                Dm
Windows are for cheaters, chim'neys for the poor,
C                          Bb
Closets are for hangers, winners use the door,
Csus      C      Csus   C              Csus   C | Csus C |
So use it Rosie, that's what it's there for.


F          Bb        C
Rosalita, jump a little lighter
     F          Bb        C
Senorita, come sit by my fire
        F                Bb             C
I just want to be your lover, ain't no liar
  F                Bb         C  
Rosalita, you're my stone desire.

                                    |  6x |
| C | C | C# | C# | D | D | D# | D# |  E  |

|             8x         |
|-------------|----------|
|---6---------|-----8--8-|
|-7---7-5-----|-----7--7-|
|---------7-5-|-----8--8-|
|-------------|-8-5------|
|-------------|----------|

|          2x        |
| F| Gm | F7sus | Gm |

    C                                            Gm
Now I know your mama, she don't like me cause I play in a rock and roll band,
      Dm                                       Am
And I know your daddy, he don't dig me but he never did understand,
            F
Your papa lowered the boom, he locked you in your room
     Gm
I'm comin' to lend a hand,
                Dm                             Am
I'm comin' to liberate you, confiscate you, I want to be your man
                 Bb                   C                F     Am
Some day we'll look back on this and it will all seem funny
     Dm                   Bb
But now you're sad, your momma's mad,
 N.C.
    and your papa says he knows that I don't have any money
    and your papa says he knows that I don't have any money
    and your papa says he knows that I don't have any money

               Gm                                 Eb                  Bb
Well tell him this is his last chance to get his daughter in a fine romance,
                  C
Cause Rosie the record company just gave me a big advance.


And my tires were slashed and I almost crashed but the Lord had mercy,
And my machine, she's a dud, out stuck in the mud somewhere in the swamps of Jersey
Well hold on tight, stay up all night, cause Rosie I'm comin' on strong,
By the time we meet the morning light I will hold you in my arms
   Bb                                                 Am             Dm
I know a pretty little place in Southern California, down San Diego way,
        C                               Bb
There's a little cafe, where they play guitars all night and day
    Am                             Dm              C
You can hear them in the back room strummin', so hold tight baby cause don't you know daddy's comin'

Everybody sing.

F          Bb        C      Csus
Rosalita, jump a little lighter
     F          Bb        C  Csus
Senorita, come sit by my fire
        F                Bb             C  Csus
I just want to be your lover, ain't no liar
  F                Bb         C  Csus
Rosalita, you're my stone desire.

|      4x       |
| F Bb | C Csus |

|               2x            |
|F      Bb      |F      C     |
Hey hey hey hey hey hey hey hey

|  6x    |
| F Fsus | F |

  F   Bb  C   Am  Eb  Dm  Gm  C#  D   D#  E   Csus F7sus Fsus
--1---1---0---0---3---1---3---4---2---6---0---1----1-----1---
--1---3---1---1---4---3---3---6---3---8---0---1----1-----1---
--2---3---0---2---3---2---3---6---2---8---1---0----3-----3---
--3---3---2---2---5---0---5---6---0---8---2---2----1-----3---
--3---1---3---0-----------5---4-------6---2---3----3-----3---
--1-----------------------3---------------0--------1-----1---

b....bend
rb...release bend
/....slide up
\....slide down
>....hammer
....pull
vvv..vibrato
 Comments (click here to add a non-facebook comment)
Home | FAQs | Privacy | Terms | Contact
Top 100 Tab Sites