Give Kudos?
Are you sure you want to give kudos to Rondo Fondu?

Add To Songbook?
Are you sure you want to add this song to your songbook?


3,422 bands | 16,457 songs
Search: Register FREE! | Login
Browse Songs:
Browse Bands:
Tool Panel
Discuss This Song

1 2 3 4 5



Bruce Springsteen - Born To Run Solo Acoustic (Tab)
Submitter: Rondo Fondu (14) on 11/12/04
Month Views: 19 | Total Views: 6,457
Moderator: EMRLDEYZS | Report This Song?
Song Tools

Comment

Songbook

Kudos

Show Chords

Print

Born To Run (Solo Acoustic)

By Bruce Springsteen
                                   

D         x x 0 2 3 2  
G5        3 x 0 0 3 3   
D5        x x 0 2 3 x 
A7sus4    x 0 2 0 3 0
Bm/F#     2 x 4 4 3 x  
Em7       0 2 2 0 3 0   
C/D       x x 0 0 3 0  
Bm7       x 2 x 2 3 x
A         x 0 2 2 2 x  
Am7       x 0 2 0 1 0  
Csus4     x 3 3 0 x x  
C         x 3 2 0 x x
Fsus4     1 3 3 3 x x   
F         1 3 3 2 x x    
Gsus4     3 5 5 5 x x   
G         3 5 5 4 x x
Ebsus2/Bb 6 8 8 8 x x 
Bb        6 8 8 7 x x   
Ebsus4    x 6 8 8 9 x  
Eb        x 6 8 8 8 x
A5        x 12 14 14 x x 
G#5       x 11 13 13 x x  
G5X       x 10 12 12 x x   
F#5       x 9 11 11 x x
A5open    x 0 2 2 x x

Standard Tuning

         Intro/ Chorus
  Moderately Fast Rock Q=142
  D          D5                  (Dsus4(D5)
 1/8     4/4
 
             PM--------------------------|
  S S     Q  E E E E E E   E E E E E E E E
|-2-2-||--2--------------|-----------------|
|-3-3-||o-3--------------|-----------------|
|-2-2-||--2--2-2-2-2-2-2-|-2-2---0---------|
|-0-0-||--0--0-0-0-0-0-0-|-0-0---0-0-0-4---|
|-----||o----------------|-----0-0-0-0-0-0-|
|-----||-----------------|-----------------|


  G                   Asus4   A5    D5
  PM----------------------------------|
  E E E E E E E S S   E E E E E E E S S
|-------------------|-------------------|
|-------------------|-------------------|
|-------------------|---------------2-2-|
|-0-----------------|-0-0-0-0-2-2-2-0-0-|
|-2-2-2-2-2-2-2-2-2-|-0-0-0-0-0-0-0-0-0-|
|-3-3-3-3-3-3-3-3-3-|-------------------|


  D  D5                  (Dsus4(D5)  G                   Asus4   A5    D5
     PM------------------------------------------------------------------|
  Q  E E E E E E   E E E E E E E E   E E E E E E E S S   E E E E E E E S S
|-2--------------|-----------------|-------------------|---------------------||
|-3--------------|-----------------|-------------------|---------------------||
|-2--2-2-2-2-2-2-|-2-2---0---------|-------------------|---------------2-2---||
|-0--0-0-0-0-0-0-|-0-0---0-0-0-4---|-0-----------------|-0-0-0-0-2-2-2-0-0---||
|----------------|-----0-0-0-0-0-0-|-2-2-2-2-2-2-2-2-2-|-0-0-0-0-0-0-0-0-0---||
|----------------|-----------------|-3-3-3-3-3-3-3-3-3-|---------------------||


 Verses 1 and 2
  D5                G5                A7sus4
  E E E E E E E E   E E E E E E E E   E E E E E E E E
|-----------------|-----------------|-0-0-0-0-0-0-0-0-|
|-3-3-3-3-3-3-3-3-|-3-3-3-3-3-3-3-3-|-3-3-3-3-3-3-3-3-|
|-2-2-2-2-2-2-2-2-|-0-0-0-0-0-0-0-0-|-0-0-0-0-0-0-0-0-|
|-0-0-0-0-0-0-0-0-|-0-0-0-0-0-0-0-0-|-2-2-2-2-2-2-2-2-|
|-----------------|-x-x-x-x-x-x-x-x-|-0-0-0-0-0-0-0-0-|
|-----------------|-3-3-3-3-3-3-3-3-|-----------------|


  D5                G5                A7sus4
  E E E E E E E E   E E E E E E E E   E E E E E E E E
|-----------------|-----------------|-0-0-0-0-0-0-0-0-|
|-3-3-3-3-3-3-3-3-|-3-3-3-3-3-3-3-3-|-3-3-3-3-3-3-3-3-|
|-2-2-2-2-2-2-2-2-|-0-0-0-0-0-0-0-0-|-0-0-0-0-0-0-0-0-|
|-0-0-0-0-0-0-0-0-|-0-0-0-0-0-0-0-0-|-2-2-2-2-2-2-2-2-|
|-----------------|-x-x-x-x-x-x-x-x-|-0-0-0-0-0-0-0-0-|
|-----------------|-3-3-3-3-3-3-3-3-|-----------------|


  G5                Bm/F#
  E E E E E E E E   E E E E E E E E
|-----------------|-----------------|
|-3-3-3-3-3-3-3-3-|-3-3-3-3-3-3-3-3-|
|-0-0-0-0-0-0-0-0-|-4-4-4-4-4-4-4-4-|
|-0-0-0-0-0-0-0-0-|-4-4-4-4-4-4-4-4-|
|-x-x-x-x-x-x-x-x-|-----------------|
|-3-3-3-3-3-3-3-3-|-2-2-2-2-2-2-2-2-|


  Em7               D                 C/D
  E E E E E E E E   E E E E E E E E   E E E E E E E E
|-0-0-0-0-0-0-0-0-|-2-2-2-2-2-2-2-2-|-0-0-0-0-0-0-0-0-|
|-3-3-3-3-3-3-3-3-|-3-3-3-3-3-3-3-3-|-3-3-3-3-3-3-3-3-|
|-0-0-0-0-0-0-0-0-|-2-2-2-2-2-2-2-2-|-0-0-0-0-0-0-0-0-|
|-2-2-2-2-2-2-2-2-|-0-0-0-0-0-0-0-0-|-0-0-0-0-0-0-0-0-|
|-2-2-2-2-2-2-2-2-|-----------------|-----------------|
|-0-0-0-0-0-0-0-0-|-----------------|-----------------|


  G5                Bm/F#             Em7               Bm/F#
  E E E E E E E E   E E E E E E E E   E E E E E E E E   E E E E E E E E
|-----------------|-----------------|-0-0-0-0-0-0-0-0-|-----------------|
|-3-3-3-3-3-3-3-3-|-3-3-3-3-3-3-3-3-|-3-3-3-3-3-3-3-3-|-3-3-3-3-3-3-3-3-|
|-0-0-0-0-0-0-0-0-|-4-4-4-4-4-4-4-4-|-0-0-0-0-0-0-0-0-|-4-4-4-4-4-4-4-4-|
|-0-0-0-0-0-0-0-0-|-4-4-4-4-4-4-4-4-|-2-2-2-2-2-2-2-2-|-4-4-4-4-4-4-4-4-|
|-x-x-x-x-x-x-x-x-|-----------------|-2-2-2-2-2-2-2-2-|-----------------|
|-3-3-3-3-3-3-3-3-|-2-2-2-2-2-2-2-2-|-0-0-0-0-0-0-0-0-|-2-2-2-2-2-2-2-2-|


  D5                Bm7               G5                A7sus4
  E E E E E E E E   E E E E E E E E   E E E E E E E E   E E E E E E E E
|-----------------|-----------------|-----------------|-0-0-0-0-0-0-0-0--||
|-3-3-3-3-3-3-3-3-|-3-3-3-3-3-3-3-3-|-3-3-3-3-3-3-3-3-|-3-3-3-3-3-3-3-3-o||
|-2-2-2-2-2-2-2-2-|-2-2-2-2-2-2-2-2-|-0-0-0-0-0-0-0-0-|-0-0-0-0-0-0-0-0--||
|-0-0-0-0-0-0-0-0-|-0-0-0-0-0-0-0-0-|-0-0-0-0-0-0-0-0-|-2-2-2-2-2-2-2-2--||
|-----------------|-2-2-2-2-2-2-2-2-|-x-x-x-x-x-x-x-x-|-0-0-0-0-0-0-0-0-o||
|-----------------|-----------------|-3-3-3-3-3-3-3-3-|------------------||


   Sax Solo
    D5                G5                A7sus4
    E E E E E E E E   E E E E E E E E   E E E E E E E E
||------------------|-----------------|-0-0-0-0-0-0-0-0--||
||o-3-3-3-3-3-3-3-3-|-3-3-3-3-3-3-3-3-|-3-3-3-3-3-3-3-3-o||
||--2-2-2-2-2-2-2-2-|-0-0-0-0-0-0-0-0-|-0-0-0-0-0-0-0-0--||
||--0-0-0-0-0-0-0-0-|-0-0-0-0-0-0-0-0-|-2-2-2-2-2-2-2-2--||
||o-----------------|-x-x-x-x-x-x-x-x-|-0-0-0-0-0-0-0-0-o||
||------------------|-3-3-3-3-3-3-3-3-|------------------||


 Bridge
  Bm7               A                 D                 Am7
  E E E E E E E E   E E E E E E E E   E E E E E E E E   E E E E E E E E
|-----------------|-----------------|-2-2-2-2-2-2-2-2-|-0-0-0-0-0-0-0-0-||
|-3-3-3-3-3-3-3-3-|-2-2-2-2-2-2-2-2-|-3-3-3-3-3-3-3-3-|-1-1-1-1-1-1-1-1-||
|-2-2-2-2-2-2-2-2-|-2-2-2-2-2-2-2-2-|-2-2-2-2-2-2-2-2-|-0-0-0-0-0-0-0-0-||
|-0-0-0-0-0-0-0-0-|-2-2-2-2-2-2-2-2-|-0-0-0-0-0-0-0-0-|-2-2-2-2-2-2-2-2-||
|-2-2-2-2-2-2-2-2-|-0-0-0-0-0-0-0-0-|-----------------|-0-0-0-0-0-0-0-0-||
|-----------------|-----------------|-----------------|-----------------||


  Csus4             C                                   Fsus4
  E E E E E E E E   E E E E E E E E   E E E E E E E E   E E E E E E E E
|-----------------|-----------------|-----------------|-----------------|
|-----------------|-----------------|-----------------|-----------------|
|-0-0-0-0-0-0-0-0-|-0-0-0-0-0-0-0-0-|-0-0-0-0-0-0-0-0-|-3-3-3-3-3-3-3-3-|
|-3-3-3-3-3-3-3-3-|-2-2-2-2-2-2-2-2-|-2-2-2-2-2-2-2-2-|-3-3-3-3-3-3-3-3-|
|-3-3-3-3-3-3-3-3-|-3-3-3-3-3-3-3-3-|-3-3-3-3-3-3-3-3-|-3-3-3-3-3-3-3-3-|
|-----------------|-----------------|-----------------|-1-1-1-1-1-1-1-1-|


  F                                   Gsus4             G
  E E E E E E E E   E E E E E E E E   E E E E E E E E   E E E E E E E E
|-----------------|-----------------|-----------------|-----------------|
|-----------------|-----------------|-----------------|-----------------|
|-2-2-2-2-2-2-2-2-|-2-2-2-2-2-2-2-2-|-5-5-5-5-5-5-5-5-|-4-4-4-4-4-4-4-4-|
|-3-3-3-3-3-3-3-3-|-3-3-3-3-3-3-3-3-|-5-5-5-5-5-5-5-5-|-5-5-5-5-5-5-5-5-|
|-3-3-3-3-3-3-3-3-|-3-3-3-3-3-3-3-3-|-5-5-5-5-5-5-5-5-|-5-5-5-5-5-5-5-5-|
|-1-1-1-1-1-1-1-1-|-1-1-1-1-1-1-1-1-|-3-3-3-3-3-3-3-3-|-3-3-3-3-3-3-3-3-|


                    Bbsus4            Bb
  E E E E E E E E   E E E E E E E E   E E E E E E E E
|-----------------|-----------------|-----------------||
|-----------------|-----------------|-----------------||
|-4-4-4-4-4-4-4-4-|-8-8-8-8-8-8-8-8-|-7-7-7-7-7-7-7-7-||
|-5-5-5-5-5-5-5-5-|-8-8-8-8-8-8-8-8-|-8-8-8-8-8-8-8-8-||
|-5-5-5-5-5-5-5-5-|-8-8-8-8-8-8-8-8-|-8-8-8-8-8-8-8-8-||
|-3-3-3-3-3-3-3-3-|-6-6-6-6-6-6-6-6-|-6-6-6-6-6-6-6-6-||


   Interlude
    Ebsus4            Eb
    E E E E E E E E   E E E E E E E E  3x
||------------------|-----
 Comments (click here to add a non-facebook comment)
Home | FAQs | Privacy | Terms | Contact
Top 100 Tab Sites