Give Kudos?
Are you sure you want to give kudos to aussief?

Add To Songbook?
Are you sure you want to add this song to your songbook?


3,408 bands | 16,377 songs
Search: Register FREE! | Login
Browse Songs:
Browse Bands:
Tool Panel
Discuss This Song

1 2 3 4 5





Brian Setzer Orchestra - Boogie Woogie Santa Claus (Tab)
Submitter: aussief (121) on 12/7/11 1 comment
Month Views: 92 | Total Views: 8,979
Help! We need a moderator for this artist. | Report This Song?
Song Tools

Comment

Songbook

Kudos

Show Chords

Print

   Words and Music by Leon Rene
   Bb6                                                   G9
E|-1------------------|-------------------|----------------|----------|
B|-1----------------3-|-------------------|--3--3--3--3--3-|--3-------|
G|-1----------------1-|---3---------------|--3--3--3--3--4-|--4-----3-|
D|-0----5--3--3--5--3-|---3----5--3--3--5-|--3--3--4--4--3-|--3-------|
A|------------------3-|---3---------------|--5--5--6--6--5-|--5-----1-|
E|------3--1--1--3----|---4----3--1--1--3-|----------------|----------|

   F7             A7   Bb6          C#7       Cm7        B7
E|----1----------|-----1-|-----------------|-------------1-|
B|-3--1----3---3-|-----1-|----------3------|-------------1-|
G|----2----2---2-|-----1-|----------0------|--------0----2-|
D|-0--1----1---1-|-----0-|-6--5--3--2----6-|--5--3--1----1-|
A|---------------|-------|----------3------|--------3----1-|
E|---------------|-------|-4--3--1-------4-|--3--1--3------|

     Bb6
Well look here Jack
        Eb6
There's something down the track
Eb6
He's got rhythm in his feet
    Bb7
But nothing in the sack
    Eb
The boogie woogie Santa Claus
Bb6
Boogie woogie Santa Claus
Cm7            F7
Boogie woogie Santa
Cm7            F7             Bb6    
Comes to town every Christmas day

Cm7      Bb6
Well he lives up in a mountain
       Eb6
Like a hermit in the cave
Eb6
He never had a haircut
   Bb7
He never took a shave
    Eb
The boogie woogie Santa Claus
Bb6
Boogie woogie Santa Claus
Cm7            F7
Boogie woogie Santa
Cm7              F7             Bb6
Comes this time every Christmas day

           Bb6                Eb6
Well let's rock rock rock Mr. Santa
Bb7                Eb
Jump jump jump Mr. Santa
         Cm7            F7        Cm7             F7     Bb6
Well the boogie woogie Santa Will boogie all your blues away

Cm7                       F7
Got no presents for your tree
Cm7               F7
No Candy for your socks
Cm7                F7
When he starts to boogie
                Bb6
The whole town rocks

Bb6
Mama get your hat
        Eb6
Put your best dress on
Eb6
We're gonna jump for joy
Bb7
On the Christmas morn
    Eb
The boogie woogie Santa Claus
Bb6
Boogie woogie Santa Claus
Cm7           F7     Cm7            F7     Bb6
Boogie woogie Santa Boogie all your blues away

           Bb6                Eb6
Well let's rock rock rock Mr. Santa
Bb7                 Eb   
Jump jump jump Mr. Santa Claus
         Cm7            F7        Cm7              F7   Bb6
Well the boogie woogie Santa Will boogie all your blues away


 An F. K. Tab,,,, Enjoy
 Comments (click here to add a non-facebook comment)
Good one. KK.
-kraziekhat | 12/7/2011
Home | FAQs | Privacy | Terms | Contact
Top 100 Tab Sites