Give Kudos?
Are you sure you want to give kudos to aussief?

Add To Songbook?
Are you sure you want to add this song to your songbook?


3,408 bands | 16,377 songs
Search: Register FREE! | Login
Browse Songs:
Browse Bands:
Tool Panel
Discuss This Song

1 2 3 4 5





Bread - Baby I`m A Want You (Tab)
Submitter: aussief (137) on 12/7/12 1 comment
Month Views: 20 | Total Views: 4,694
Moderator: ldean66 | Report This Song?
Song Tools

Comment

Songbook

Kudos

Show Chords

Print

Songwriter: David Gates

INTRO
   Amaj7            D          Amaj7                     D
E|----------------|----------|-------------------------|----------|
B|----------------|----------|-----------------12-s-14-|----------|
G|-13-----13-h-14-|----------|-13-----13-h-14----------|----------|
D|----------------|-16-------|-------------------------|-16-------|
A|----------------|----------|-------------------------|----------|
E|----------------|----------|-------------------------|----------|

A
Baby, I'm-a want you 
Bm7
Baby, I'm-a need you 
        Amaj7                     D
You the only one I care enough to hurt about 
Bm7
Maybe I'm-a crazy 
      D
But I just can't live without... 
      A
Your lovin' and affection 
Bm7
Givin' me direction 
        Amaj7                              D
Like a guiding light to help me through a darkest hour 
Bm7
Lately I'm a-prayin' 
             D                   A
That you'll always be a-stayin' beside me 

C#m7                                  Dmaj7
Used to be my life was just emotions passing by 
C#m                                    E   D
Feeling all the while and never really knowing why... 

   A                   Bm7                        Amaj7
E|-------------------|-------------------------|-------7--6---------|
B|-------------------|---------------------5-5-|--5----------7-5----|
G|-----------2-----4-|-4-2-4-2-4----4-s-6------|------------------4-|
D|-2-2-2-2-4---------|-------------------------|--------------------|
A|-------------------|-------------------------|--------------------|
E|-------------------|-------------------------|--------------------|

   Gmaj7
E|----------------------------|
B|----------------------------|  ( There are some slides and hammers in
G|----2--------2-2------------|    the instrumental breaks that I didn`t
D|-------4-2-4-----4----------|    put in,,,listen to the recording to get
A|--------------------4-2-4-2-|    the feel of the song,,,)
E|----------------------------|

Bm7
Lately I'm a-prayin' 
             D                   A
That you'll always be a-stayin' beside me. 

C#m7                                  E  D
Used to be my life was just emotions passing by 
C#m                     
Then you came along and made me laugh 
     E   D
And made me cry... 
A
You taught me why... 
A
Baby, I'm-a want you 
Bm7
Baby, I'm-a need you 

Amaj7       Gmaj7
Oh, it took so long to find you, baby 
A
Baby, I'm-a want you 
Bm7
Baby, I'm-a need you

OUTRO

  Amaj7         Gmaj7                 A
E|------5--4---|-------5--7-------|---5---------|
B|-----------5-|-7----------------|-------------|
G|-------------|------------------|-------------|
D|-------------|------------------|-------------|
A|-------------|------------------|-------------|
E|-------------|------------------|-------------|

An F. K. Tab,,,,Enjoy!!!!!!!
 Comments (click here to add a non-facebook comment)
Nice job. KK.
-kraziekhat | 12/8/2012
Home | FAQs | Privacy | Terms | Contact
Top 100 Tab Sites