Give Kudos?
Are you sure you want to give kudos to Rondo Fondu?

Add To Songbook?
Are you sure you want to add this song to your songbook?


3,422 bands | 16,457 songs
Search: Register FREE! | Login
Browse Songs:
Browse Bands:
Tool Panel
Discuss This Song

1 2 3 4 5



Booker T And The MGs - Green Onions (Tab)
Submitter: Rondo Fondu (14) on 5/6/04
Month Views: 19 | Total Views: 5,643
Help! We need a moderator for this artist. | Report This Song?
Song Tools

Comment

Songbook

Kudos

Show Chords

Print

Green Onions
Music by Booker T. Jones, Steve Cropper, Lewis Steinberg, and Al Jackson, Jr.

Gtr I   Organ Arranged For Guitar
Gtr II  Electric Guitar'

 Main Theme
  Moderately fast shuffle Q=136(8=s8)
  F        Ab Bb   F        Ab Bb   F        Ab Bb   F        Ab Bb
 4/4
  Gtr I
  E E  Q   Q  Q    E E  Q   Q  Q    E E  Q   Q  Q    E E  Q   Q  Q
|----------------|----------------|----------------|-----------------|
|------6---4--3--|------6---4--3--|------6---4--3--|------6---4--3---|
|------5---5--3--|------5---5--3--|------5---5--3--|------5---5--3---|
|---3-(3)--6--3--|---3-(3)--6--3--|---3-(3)--6--3--|---3-(3)--6--3---|
|----------------|----------------|----------------|-----------------|
|----------------|----------------|----------------|-----------------|
|
| Gtr II
| W                W                W                H        Q  E e
|----------------|----------------|----------------|-----------------|
|----------------|----------------|----------------|---------------3-|
|----------------|----------------|----------------|---------------3-|
|----------------|----------------|----------------|---------------3-|
|----------------|----------------|----------------|-----------------|
|----------------|----------------|----------------|-----------------|


  F        Ab Bb    F        Ab Bb    F        Ab Bb    F        Ab Bb/Eb
  E E  Q   Q  Q     E E  Q   Q  Q     E E  Q   Q  Q     E E  Q   Q  Q
|-----------------|-----------------|-----------------|-----------------|
|------6---4--3---|------6---4--3---|------6---4--3---|------6---4--3---|
|------5---5--3---|------5---5--3---|------5---5--3---|------5---5--3---|
|---3-(3)--6--3---|---3-(3)--6--3---|---3-(3)--6--3---|---3-(3)--6--3---|
|-----------------|-----------------|-----------------|-----------------|
|-----------------|-----------------|-----------------|-----------------|
|
| H        Q  E e   H        Q  E e   H        Q  E e   H        Q  E e
|-----------------|-----------------|-----------------|-----------------|
|---------------3-|---------------3-|---------------3-|---------------8-|
|---------------3-|---------------3-|---------------3-|---------------8-|
|---------------3-|---------------3-|---------------3-|---------------8-|
|-----------------|-----------------|-----------------|-----------------|
|-----------------|-----------------|-----------------|-----------------|


  Bb       Db Eb    Bb       Db Eb    F        Ab Bb
  E E  Q   Q  Q     E E  Q   Q  Q     E E  Q   Q  Q
|-----------------|-----------------|-----------------|
|------3---6--4---|------3---6--4---|------6---4--3---|
|------3---6--5---|------3---6--5---|------5---5--3---|
|---3-(3)--6--5---|---3-(3)--6--5---|---3-(3)--6--3---|
|-----------------|-----------------|-----------------|
|-----------------|-----------------|-----------------|
|
| H        Q  E e   H        Q  E e   H        Q  E e
|-----------------|-----------------|-----------------|
|---------------8-|---------------3-|---------------3-|
|---------------8-|---------------3-|---------------3-|
|---------------8-|---------------3-|---------------3-|
|-----------------|-----------------|-----------------|
|-----------------|-----------------|-----------------|


  F        Ab Bb     C        Eb F/Eb
  E E  Q   Q  Q      E E  Q   Q  Q
|------------------|-----------------|
|------6---4--3----|------5---4--6---|
|------5---5--3----|------5---3--5---|
|---3-(3)--6--3----|---5-(5)--5--7---|
|------------------|-----------------|
|------------------|-----------------|
|
| H        Q  E  e   H        Q  E e
|------------------|-----------------|
|---------------10-|---------------8-|
|---------------10-|---------------8-|
|---------------10-|---------------8-|
|------------------|-----------------|
|------------------|-----------------|


  Bb       Db Eb    F        Ab Bb
  E E  Q   Q  Q     E E  Q   Q  Q
|-----------------|-----------------|
|------3---6--4---|------6---4--3---|
|------3---6--5---|------5---5--3---|
|---3-(3)--6--5---|---3-(3)--6--3---|
|-----------------|-----------------|
|-----------------|-----------------|
|
| H        Q  E e   H        Q  E e
|-----------------|-----------------|
|---------------3-|---------------3-|
|---------------3-|---------------3-|
|---------------3-|---------------3-|
|-----------------|-----------------|
|-----------------|-----------------|


                   Organ Solo I
  F        Ab Bb    F       Ab Bb   F      Ab Bb
  E E  Q   Q  Q     E E Q   H       Q  E E Q  E E
|----------------||-1-1-----------|------1-4--6-5-|
|------6---4--3--||---------------|---------------|
|------5---5--3--||---------------|---------------|
|---3-(3)--6--3--||---------------|---------------|
|----------------||---------------|---------------|
|----------------||---------------|---------------|
|
|                   PM------------------------|
| W                 Q   E E Q  Q    Q  E E Q  Q
|----------------||---------------|---------------|
|----------------||---------------|---------------|
|----------------||---------------|---------------|
|----------------||---------------|---------------|
|----------------||------------1--|-----------1---|
|----------------||-1---1-1-4-----|-1--1-1-4------|


  F       Ab Bb   F      Ab Bb   Bb      Db Eb
  E E Q   H       Q  E E Q  Q    E E Q   H
|-1-1-----------|-----------1--|-1-1-----------|
|---------------|------1-4-----|---------------|
|---------------|--------------|---------------|
|---------------|--------------|---------------|
|---------------|--------------|---------------|
|---------------|--------------|---------------|
|
| PM--------------------------------------------
| Q   E E Q  Q    Q  E E Q  Q    Q   E E Q  Q
|---------------|--------------|---------------|
|---------------|--------------|---------------|
|---------------|--------------|---------------|
|---------------|--------------|------------1--|
|------------1--|-----------1--|-1---1-1-4-----|
|-1---1-1-4-----|-1--1-1-4-----|---------------|


  Bb/Cb    Db Eb   F       Ab Bb
  Q  E S S Q  Q    E E Q   H
|----8-7-6-4--1--|-1-1-------------|
|----------------|-----------------|
|----------------|-----------------|
|----------------|-----------------|
|----------------|-----------------|
|----------------|-----------------|
|
|-----------------------------|
| Q  E E   Q  Q    Q   E E Q  Q
|----------------|-----------------|
|----------------|-----------------|
|----------------|-----------------|
|-------------1--|-----------------|
|-1--1-1---4-----|------------1----|
|----------------|-1---1-1-4-------|


  F             Ab     Bb       C      Eb   F
  Q   a  Q    a  Q   a  Q     a Q  Q   Q  a Q
|----12h13---12h13--12h13--|-12p8---------7h8--|
|--------------------------|-------------------|
|--------------------------|-------------------|
|--------------------------|-------------------|
|--------------------------|-------------------|
|--------------------------|-------------------|
|
| PM--------------------------------------------
| Q      E E     Q      Q       Q  E E Q    Q
|--------------------------|-------------------|
|--------------------------|-------------------|
|--------------------------|-------------------|
|--------------------------|----------------3--|
|-----------------------1--|----3--3-3-6-------|
|-1------1-1-----4---------|-------------------|


  Bb/Ab      Db   Eb   F/Ab     Ab Bb   F/Eb   Ab    Bb/Eb
  a Q  Q   a Q  a Q    a Q  Q   H       Q  e E S S E Q
|-4p1--6---5h6--5h6--|-4p1------------|-----------------||
|--------------------|----------------|----4---4-4---4--||
|--------------------|----------------|----5---5-5---5--||
|--------------------|----------------|-----------------||
|--------------------|----------------|-----------------||
|--------------------|----------------|--------
 Comments (click here to add a non-facebook comment)
Home | FAQs | Privacy | Terms | Contact
Top 100 Tab Sites