Give Kudos?
Are you sure you want to give kudos to aussief?

Add To Songbook?
Are you sure you want to add this song to your songbook?


3,394 bands | 16,279 songs
Search: Register FREE! | Login
Browse Songs:
Browse Bands:
Tool Panel
Discuss This Song

1 2 3 4 5





Bobby Mc Ferrin - Don`t Worry, Be Happy (Tab)
Submitter: aussief (104) on 8/1/09 1 comment
Month Views: 9 | Total Views: 15,818
Help! We need a moderator for this artist. | Report This Song?
Song Tools

Comment

Songbook

Kudos

Show Chords

Print

Words and Music by Bobby McFerrin

Whistle Intro

  Bb                                  Cm                           Eb
E|-6----------|---------------------|-------------|--------------|-------------|
B|-------8--6-|-8---------6---------|-------------|----6---------|-------------|
G|------------|----5-s-7----7--5----|-5--7-s-5----|------7--5----|-5--7-s-5----|
D|------------|------------------8--|-------------|------------8-|-------------|
A|------------|---------------------|-------------|--------------|-------------|
E|------------|---------------------|-------------|--------------|-------------|

                 Bb      Eb         Bb         Eb
E|------------|-------------|
B|------------|-------------|
G|-6--5--3----|--3----------|
D|---------5--|-------------|
A|------------|-------------|
E|------------|-------------|

    Bb                                Cm                           Eb
E|-10--8----|--8--------------------|------------|---------------|-------------|
B|-------11-|----6-s-8--11----------|------------|---11----------|-------------|
G|----------|--------------10--8--7-|-8--10-s-8--|------10--8--7-|--8--10-s-8--|
D|----------|-----------------------|------------|---------------|-------------|
A|----------|-----------------------|------------|---------------|-------------|
E|----------|-----------------------|------------|---------------|-------------|

                  Bb      Eb        Bb        Eb
E|-------------|------------|
B|-------------|------------|
G|-10--8--7----|--7---------|
D|----------8--|------------|
A|-------------|------------|
E|-------------|------------|


Bb
Here's a little song I wrote
    Cm
You might want to sing it note for note
       Eb        Bb     Eb  Bb  Eb
Don't worry, be happy
Bb
In every life we have some trouble
Cm
When you worry you make it double
       Eb        Bb     Eb
Don't worry, be happy
(Spoken)
Don't worry, be happy now

CHORUS
Bb                      Cm
Oo, oo-oo-oo, oo-oo-oo, oo-oo-oo-oo-oo-oo
Cm
Don't worry
Eb
Oo-oo-oo-oo-oo-oo-oo
Eb
Be happy
Bb
Oo-oo-oo-oo-oo
(Spoken)
Don't worry, be happy

Bb
Ain't got no place to lay your head
Cm
Somebody came and took your bed
      Eb         Bb     Eb  Bb   Eb
Don't worry, be happy
Bb
The landlord say your rent is late
Cm
He may have to litigate
       Eb       Bb     Eb
Don't worry, be happy
(Spoken)
Look at me, I'm happy

REPEAT CHORUS
(Spoken)
Give you my phone number
When you worry, call me, I make you happy

REPEAT CHORUS

Bb
Ain't got no cash, ain't got no style
Cm
Ain't got no gal to make you smile
          Eb         Bb     Eb  Bb  Eb
But don't worry, be happy
       Bb
'Cause when you worry, your face will frown
Cm
And that will bring everybody down
         Eb        Bb      Eb
So don't worry, be happy
Spoken)
Don't worry, be happy now

REPEAT CHORUS

(Spoken)
Now there, is this song I wrote
I hope you learned it note for note
Like good little children
Don't worry, be happy
Listen to what I say
In your life expect some trouble
When you worry you make it double
Don't worry, be happy, be happy now

REPEAT CHORUS


An F. K. Tab, Enjoy!!
 Comments (click here to add a non-facebook comment)
Haven't heard this one in a long while. Nice job. KK.
-kraziekhat | 8/2/2009
Home | FAQs | Privacy | Terms | Contact
Top 100 Tab Sites