Give Kudos?
Are you sure you want to give kudos to drw64?

Add To Songbook?
Are you sure you want to add this song to your songbook?


3,408 bands | 16,377 songs
Search: Register FREE! | Login
Browse Songs:
Browse Bands:
Tool Panel
Discuss This Song

1 2 3 4 5





Bob Seger - Turn The Page W/ Intro For Guitar (Chord)
Submitter: drw64 (1) on 2/11/11 2 comments
Month Views: 15 | Total Views: 7,959
Moderator: ldean66 | Report This Song?
Song Tools

Comment

Songbook

Kudos

Show Chords

Print

-----------------------------------------------------------------
Turn The Page by Bob Seger
-----------------------------------------------------------------
Tabbed by: drw64
Tuning: Standard

E|-15-14-------------------15p14----------------------------------------|
B|-------15----------------------15-------------------------------------|
G|----------14--16--16\14-----------14--16---14--12--11-----------------|
D|------------------------------------------------------12—12\14—--14\2-|
A|----------------------------------------------------------------------|
E|----------------------------------------------------------------------|


(Em)        
On a long lonesome highway  East of Omaha

       (D)
You can listen the engine moanin' out its one note song

      (A)                                                  (Em)
You can think about the woman or the girl you knew the night before

(Em)
But your thoughts will soon be wonderin' the way they always do

           (D)
When you're ridin' sixteen hours and there's nothin' much to do

        (A)                                                   (Em)
And you don't feel much like ridin'  You just wish the trip was through

Chorus

           (D)       (Em)               (D)           (Em)
Say here I am  On the road again  There I am. Up on the stage. 

       (D)             (A)                   (C)(D)     (Em) 
Here I go   Playin' the star again   There I go Turn the page.


Verse II

(Em)
Well you walk into a restaurant, strung out from the road.

      (D)                             
You can feel the eyes upon you, as you're shakin' off the cold

   (A)                                                (Em)
You pretend it doesn't bother you, but you just want to explode.

(Em)
Most times you can't hear 'em talk, other times you can.

       (D)                    
All the same old clichés, is that a woman or a man?

       (A)                                           (Em)
And you always seem outnumbered, you don't dare make a stand.

     (D)     (Em)                    (D)           (Em)  
Here I am  On the road again  There I am. Up on the stage. 

      (D)             (A)                   (C)(D)     (Em)
Here I go   Playin' the star again   There I go Turn the page.

(Em)
Out there in the spotlight, you're a million miles away.


(D)
Every ounce of energy, you try to give away.

      (A)                                                (Em)
As the sweat pours out your body, like the music that you play.


E|-15----14-------------------------------------------------------------|
B|----------15----------------------------------------------------------|
G|---------------14--16-----14p16---------------------------------------|
D|----------------------------------------------------------------------|
A|----------------------------------------------------------------------|
E|----------------------------------------------------------------------|

(Em)                                                    
Later in the evenin' as you lie awake in bed 

       (D)
With the echoes from the amplifiers ringin' in your head.

(A)                                                    (Em)  
You smoke the days last cigarette, rememberin' what you said.

     (D)         (Em)                (D)          (Em)          
Here I am  On the road again  There I am. Up on the stage. 

      (D)             (Em)                  (C)(D)      (Em)
Here I go   Playin' the star again   There I go Turn the page.

     (D)              (Em)           (D)          (Em)
Here I am  On the road again  There I am. Up on the stage. 

     (D)              (Em)                  (C)(D)     (Em)
Here I go   Playin' the star again   There I go Turn the page.



E|-15-14-------------15---14--------------------------------------------|
B|-------15------------------15-----------------------------------------|
G|----------14--16--------------14--16----14--12-11---------------------|
D|------------------------------------------------------12--14----------|
A|----------------------------------------------------------------------|
E|----------------------------------------------------------------------|
 
 Comments (click here to add a non-facebook comment)
Great job,, well done!!!!
-aussief | 2/11/2011
Very nice. KK.
-kraziekhat | 2/12/2011
Home | FAQs | Privacy | Terms | Contact
Top 100 Tab Sites