Give Kudos?
Are you sure you want to give kudos to driller?

Add To Songbook?
Are you sure you want to add this song to your songbook?


3,395 bands | 16,282 songs
Search: Register FREE! | Login
Browse Songs:
Browse Bands:
Tool Panel
Discuss This Song

1 2 3 4 5





Bob Seger - Old Time Rock N` Rool (Bass)
Submitter: driller (6) on 9/20/03
Month Views: 10 | Total Views: 2,885
Moderator: ldean66 | Report This Song?
Song Tools

Comment

Songbook

Kudos

Show Chords

Print

G:-----------------------------------------------------------------------
D:-----------------------------------------------------------------------
A:-------------------------------01-2-2-2-2-2-2-2-2-2-2-2-2-2-2-2-2------
E:-2-2-2-2-2-2-2-2-2-2-2-2-2-2-------------------------------------------
G:-----------------------------------------------------------------------
D:-----------------------------------------------------------------------
A:--4-4-4-4-4-4-4-4-4-4-4-4-4-4-4-4-----------------------4-4-4-4-4-4-4--
E:-------------------------------------2-2-2-2-2-2-2-2-2-----------------
 Comments (click here to add a non-facebook comment)
Home | FAQs | Privacy | Terms | Contact
Top 100 Tab Sites