Give Kudos?
Are you sure you want to give kudos to EMRLDEYZS?

Add To Songbook?
Are you sure you want to add this song to your songbook?


3,418 bands | 16,413 songs
Search: Register FREE! | Login
Browse Songs:
Browse Bands:
Tool Panel
Discuss This Song

1 2 3 4 5





Bob Seger - Mainstreet (Solo)
Submitter: EMRLDEYZS (75) on 6/28/04
Month Views: 12 | Total Views: 4,418
Moderator: ldean66 | Report This Song?
Song Tools

Comment

Songbook

Kudos

Show Chords

Print

SOLO:


         G                      Em       D             C
                                 ~~                           ~
|------------------------------------||----------------------------|
|-17b19--(17)r--(17)-15---12h15p12---||---------------------7-8-10-|
|------------------------------------||---------7---7h9---9--------|
|------------------------------------||-7---7-9--------------------|
|------------------------------------||----------------------------|
|------------------------------------||----------------------------|
        G                          Em
          ~~~~                                            ~~~
|----------------------------------------------------------|
|-10b12-(10)---------10b12==(10)r(10)-8p7-----10-----------|
|-----------------------------------------9p7----9b11--(9)-|
|----------------------------------------------------------|
|----------------------------------------------------------|
|----------------------------------------------------------|

  D                        C
   ~~~                     ~
|-------------------------------------------------|
|-------------------------------------------------|
|-(9)-----9b11--(9)r(9)---7-9-------9b11--(9)r(9)-|
|-------------------------------------------------|
|-------------------------------------------------|
|-------------------------------------------------|


  G             Em                D           C
      ~
|-------------------------------|--------------------------|
|-------------------------------|--------------------------|
|-----7---------7---------------|---------------------7-9--|
|-7h9-------7h9-------7---------|---------7-------7s9------|
|-----------------7h9---9s7-5---|-5---7h9---9s7------------|
|-----------------------------7-|--------------------------|


|------------------------------|------------------------10b12-(10)--|
|----------7---8p7---7---------|-----10b12-(10)----10---------------|
|------------------9---9p7-----|------------------------------------|
|-7h9----------------------7h9-|-7----------------------------------|
|------------------------------|------------------------------------|
|------------------------------|------------------------------------|

   ~~                   ~
|-10---7---------------------||
|--------10p7----------------||
|-------------9s7---7s9-7----||
|-----------------9----------||
|----------------------------||
|----------------------------||
 Comments (click here to add a non-facebook comment)
Home | FAQs | Privacy | Terms | Contact
Top 100 Tab Sites