Give Kudos?
Are you sure you want to give kudos to texasisalive?

Add To Songbook?
Are you sure you want to add this song to your songbook?


3,420 bands | 16,457 songs
Search: Register FREE! | Login
Browse Songs:
Browse Bands:
Tool Panel
Discuss This Song

1 2 3 4 5



Black Crowes - She Tals To Angels (Intro)
Submitter: texasisalive (10) on 8/19/03 1 comment
Month Views: 12 | Total Views: 3,139
Help! We need a moderator for this artist. | Report This Song?
Song Tools

Comment

Songbook

Kudos

Show Chords

Print

Black Crowes
She Talks To Angels

Guitar tuning:
e-e
b-b
g-tune to G#
d-tune to e
a-tune to b
e-e

Intro:

e|-----5-------0-------0---------0-------5-------0-------0---------0-|
B|-4s5---4p2-0-------0-----------0---4s5---4p2-0-------0-----------0-|
G|---------------0h1-----1-1p0---0-----------------0h1-----1-1p0---0-|
D|-----------------------------0-0-------------------------------0-0-|
A|-------------------------------------------------------------------|
E|-------------------------------------------------------------------|

   v ^ v  v v ^ v v v v       N.H>   v v ^ v v v v
e|-0-0-0--0-0-0-0-0-0-0------12---7---0-0-0-0-0-0-0------------------|
B|-0-0-0--0-0-0-0-0-0-0------12---7---0-0-0-0-0-0-0------------------|
G|-0-0-0--0-0-0-1-0-1-0------12---7---0-0-0-1-x-1-0------------------|
D|-0-0-0--0-0---2-0-2-0------12---7---0-0---2-x-2-0------------------|
A|-0-0-0--0-----0-0-0-0------12---7---0-----0-0-0-0------------------|
E|-0-0-0--0-----0-0-0-0------12---7---0-----0-0-0-0------------------|

                                 v v ^ v v v v
e|-------------------------------0-0-0-0-0-0-0-----------------------|
B|-------------2p0---------0-----0-0-0-0-0-0-0-----------------------|
G|-----0-2p0---------2p0---------0-0-0-1-x-1-0-----------------------|
D|-2s4-------0-----0-----0---2-0-0-0---2-x-2-0-----------------------|
A|-------------------------------0-----0-0-0-0-----------------------|
E|-------------------------------0-----0-0-0-0-----------------------|

                                 v v v ^ v v v v
e|-0---0---0---0---0---0---0---0-0-0-0-0-0-0-0-0---------------------|
B|---5---4-----------------------0-0-0-0-0-0-0-0---------------------|
G|-----------5---3---1---0-------0-0-0-0-1-0-1-0---------------------|
D|---------------------------0---0-0-0---2-0-2-0---------------------|
A|---------------------------------0-----0-0-0-0---------------------|
E|---------------------------------0-----0-0-0-0---------------------|
 Comments (click here to add a non-facebook comment)
Hey this sounds right to me. Good job
-mrcountryrock | 12/17/2003
Home | FAQs | Privacy | Terms | Contact
Top 100 Tab Sites