Give Kudos?
Are you sure you want to give kudos to yinielin?

Add To Songbook?
Are you sure you want to add this song to your songbook?


3,425 bands | 16,469 songs
Search: Register FREE! | Login
Browse Songs:
Browse Bands:
Tool Panel
Discuss This Song

1 2 3 4 5



Black Crowes - She Talks To Angels(full) (Intro)
Submitter: yinielin (0) on 11/2/03 2 comments
Month Views: 1 | Total Views: 4,624
Help! We need a moderator for this artist. | Report This Song?
Song Tools

Comment

Songbook

Kudos

Show Chords

Print

By:yinelin
She talks to Angels, Black Crows





E------0-------0-------0----------0----
B--4h5---4/2-0-------0------------0----
G----------------1h2-----1-2p1----1----
D------------------------------2--2----
A---------------------------------2----
E---------------------------------0----

E------0-------0-------0----------0----
B--4h5---4/2-0-------0------------0----
G----------------1h2-----1-2p1----1----
D------------------------------2--2----
A---------------------------------2----
E---------------------------------0----

E-0-0-0--0-0-0-0-0-0-0-----------------
B-0-0-0--0-0-0-0-0-0-0-----------------
G-1-1-1--1-1-1-2-1-2-1-----HA12---HA5--
D-2-2-2--2-2-2-2-2-2-2-----HA12---HA5--
A-2-2-2--2-2-2-2-2-2-2-----------------
E-0-0-0--0-0-0-0-0-0-0-----------------

E-0-0-0-0-0-0-0---------------------------------
B-0-0-0-0-0-0-0----------------2p0--------------
G-1-1-1-2-1-2-1----------4p1-------1-4p1---4----
D-2-2-2-2-2-2-2--4h6-6-------4-----------4---2--
A-2-2-2-2-2-2-2---------------------------------
E-0-0-0-0-0-0-0---------------------------------

E-0-0-0-0-0-0-0---0---0---0--0---0---0--0---0---
B-0-0-0-0-0-0-0-----5---4-----------------------
D-1-1-1-2-1-2-1-------------6--4---2---1--------
G-2-2-2-2-2-2-2---------------------------4---2-
A-2-2-2-2-2-2-2---------------------------------
E-0-0-0-0-0-0-0---------------------------------

E-0-0-0-0-0-0-0---
B-0-0-0-0-0-0-0---
D-1-1-1-2-1-2-1---
G-2-2-2-2-2-2-2---
A-2-2-2-2-2-2-2---
E-0-0-0-0-0-0-0---
 Comments (click here to add a non-facebook comment)
ITS HOPELESS

-jmarshal | 7/10/2004
play it in open D or open E
-Brettgl21 | 3/21/2005
Home | FAQs | Privacy | Terms | Contact
Top 100 Tab Sites