Give Kudos?
Are you sure you want to give kudos to WildCard76?

Add To Songbook?
Are you sure you want to add this song to your songbook?


3,380 bands | 16,081 songs
Search: Register FREE! | Login
Browse Songs:
Browse Bands:
Tool Panel
Discuss This Song

1 2 3 4 5





Billy Joel - We Didn't Start The Fire (Tab)
Submitter: WildCard76 (167) on 9/3/03
Month Views: 17 | Total Views: 3,430
Moderator: scadet | Report This Song?
Song Tools

Comment

Songbook

Kudos

Show Chords

Print

E DIDN'T START THE FIRE
Billy Joel
(Joel)
Album: Greatest Hits
Submitted by: Christopher R.
Sept. 3, 2003

Intro:  

     (G/D)                 (D)        (Em)                 (C)

E-----------------------------------------------------------------------
B-----------------------------------------12------------------12--------
G---------------12-12-14-----------12-14-----14-12-----12-14-----14-12--
D--12-12-12-14---------------14---------------------14------------------
A-----------------------------------------------------------------------
E-----------------------------------------------------------------------

    (G/D)            (D)           (Em)            (C)             
 
E-----------------------------------------------------------------------
B------------------------------------12--------------12-----------------
G---------------12-12-b14r-----12-14---14-12---12-14---14-12------------
D--12-12-12-14--------------14--------------14--------------------------
A-----------------------------------------------------------------------
E-----------------------------------------------------------------------

     (G/D)          (D)      (Em)       (C)      (G/D)  (D)

E-----0------0------0---0------------------------------0-----0----------
B---3---3------3--------------5---5-------------7--8-----3-----3---3----
G----------------0--------------2---4--2--5--5-------------2-----2------
D----------5-----------------2------------------------------------------
A-----------------------------------------------------------------------
E-----------------------------------------------------------------------

    (Em)                (C)      

E----------------------------------------------------
B-------5---5-----------------7---7--8---------------
G---------2---4--2--0-----5--------------------------
D---2-------------------5----------------------------
A----------------------------------------------------
E----------------------------------------------------

(G) Harry Truman, Doris Day, (D) Red China, Johnny Ray
(Em) South Pacific, Walter Winchell, (C) Joe DiMaggio 
(G) Joe McCarthy, Richard Nixon, (D) Studebaker, Television
(Em) North Korea, South Korea, (C) Marilyn Monroe 

(G)  (D)  (Em)  (C) 

(G) Rosenbergs, H Bomb, (D) Sugar Ray, Panmunjom
Br(Em)ando, The King And I, (C) and The Catcher In The Rye 
(G) Eisenhower, Vaccine, (D) England's got a new queen
(Em) Maciano, Liberace, (C) Santayana goodbye 

(G/D) We didn't start the (D) fire
It was (Em) always burning
Since the (C) world's been turning
(G/D) We didn't start the (D) fire
No we (Em) didn't light it
But we (C) tried to fight it 

(G) Joseph Stalin, Malenkov, (D) Nasser and Prokofiev
(Em) Rockefeller, Campanella, (C) Communist Bloc 
(G) Roy Cohn, Juan Peron, (D) Toscanini, Dancron
(Em) Dien Bien Phu Falls, (C) Rock Around the Clock 
(G) Einstein, James Dean, (D) Brooklyn's got a winning team
(Em) Davy Crockett, Peter Pan, (C) Elvis Presley, Disneyland 
(G) Bardot, Budapest, (D) Alabama, Khrushchev
(Em) Princess Grace, Peyton Place, (C) Trouble in the Suez 

(G/D) We didn't start the (D) fire
It was (Em) always burning
Since the (C) world's been turning
(G/D) We didn't start the (D) fire
No we (Em) didn't light it
But we (C) tried to fight it 

(C) Little Rock, Pasternak, (Am) Mickey Mantle, Kerouac
(Em) Sputnik, Chou En-Lai, (D) Bridge On The River Kwai 
(C) Lebanon, Charles de Gaulle, (Am) California baseball
(Em) Starkwether, Homicide, (D) Children of Thalidomide

(G) Buddy Holly, Ben Hur, (D) Space Monkey, Mafia
(Em) Hula Hoops, Castro, (C) Edsel is a no-go 
(G) U2, Syngman Rhee, (D) payola and Kennedy
(Em) Chubby Checker, Psycho, (C) Belgians in the Congo 

(G/D) We didn't start the (D) fire
It was (Em) always burning
Since the (C) world's been turning
(G/D) We didn't start the (D) fire
No we (Em) didn't light it
But we (C) tried to fight it 

(G) Hemingway, Eichman, (D) Stranger in a Strange Land
(Em) Dylan, Berlin, (C) Bay of Pigs invasion 
(G) Lawrence of Arabia, (D) British Beatlemania
(Em) Ole Miss, John Glenn, (C) Liston beats Patterson 
(G) Pope Paul, Malcolm X, (D) British Politician sex
(Em) J.F.K. blown away, (no chord) what else do I have to say 

(G/D) We didn't start the (D) fire
It was (Em) always burning
Since the (C) world's been turning
(G/D) We didn't start the (D) fire
No we (Em) didn't light it
But we (C) tried to fight it 

(G) Birth control, Ho Chi Minh, (D) Richard Nixon back again
(Em) Moonshot, Woodstock, (C) Watergate, punk rock
(G) Begin, Reagan, Palestine, (D) Terror on the airline
(Em) Ayatollah's in Iran, (C) Russians in Afghanistan 
(G) Wheel of Fortune, Sally Ride, (D) heavy metal, suicide
(Em) Foreign debts, homeless Vets, (C) AIDS, Crack, Bernie Goetz
(G) Hypodermics on the shores, (D) China's under martial law
(no chord) Rock and Roller cola wars, I can't take it anymore 

(G/D) We didn't start the (D) fire
It was (Em) always burning
Since the (C) world's been turning
(G/D) We didn't start the (D) fire
No we (Em) didn't light it
But we (C) tried to fight it 

Repeat and fade...
 Comments (click here to add a non-facebook comment)
Home | FAQs | Privacy | Terms | Contact
Top 100 Tab Sites