Give Kudos?
Are you sure you want to give kudos to WildCard76?

Add To Songbook?
Are you sure you want to add this song to your songbook?


3,350 bands | 15,891 songs
Search: Register FREE! | Login
Browse Songs:
Browse Bands:
Tool Panel
Discuss This Song

1 2 3 4 5





Billy Joel - Close To The Borderline (Intro)
Submitter: WildCard76 (273) on 3/21/04
Month Views: 29 | Total Views: 2,350
Moderator: scadet | Report This Song?
Song Tools

Comment

Songbook

Kudos

Show Chords

Print

CLOSE TO THE BORDERLINE


    (A)                                     (D)
 
E--------------------------------------------------------
B--------------------------------------------------------
G--x--2---x--2---2----x--2----x--2--2-----x---7--x--7--7-
D--x--2---x--2---2----x--2----x--2--2-----x---7--x--7--7-
A--x--0---x--0---0----x--0----x--0--0-----x---5--x--5--5-
E--------------------------------------------------------

   (G)  (D)  (A)             (D)        (G)  (D)

E--------------------------------------------------------
B--8p7--8p7------------------------------8p7--8p7--------
G--7-7--7-7---2---2---2---2---7--7--7----7-7--7-7--------
D-------------2---2---2---2---7--7--7--------------------
A-------------0---0---0---0---5--5--5--------------------
E--------------------------------------------------------
 Comments (click here to add a non-facebook comment)
Home | FAQs | Privacy | Terms | Contact
Top 100 Tab Sites