Give Kudos?
Are you sure you want to give kudos to aussief?

Add To Songbook?
Are you sure you want to add this song to your songbook?


3,395 bands | 16,293 songs
Search: Register FREE! | Login
Browse Songs:
Browse Bands:
Tool Panel
Discuss This Song

1 2 3 4 5





Bill Justis - Raunchy (Tab)
Submitter: aussief (133) on 6/28/11 2 comments
Month Views: 26 | Total Views: 11,238
Help! We need a moderator for this artist. | Report This Song?
Song Tools

Comment

Songbook

Kudos

Show Chords

Print

   Music by Bill Justis and Sidney Manker
          C
E|------|---------------|------------|--------------|-----------|
B|------|---------------|------------|--------------|-----------|
G|------|---------------|------------|--------------|-----------|
D|------|-------1-2-1-2-|------------|------1-2-1-2-|-----------|
A|----1-|-3-------------|-3--------1-|-3------------|-3-------1-|
E|-3----|---------------|-------3----|--------------|------3----|
                                                   C7
E|--------------|-----------|--------------|---------------|
B|--------------|-----------|--------------|---------------|
G|--------------|-----------|--------------|---------------|
D|------1-2-1-2-|-----------|------1-2-1-2-|---------------|
A|-3------------|-3-------1-|-3------------|-3-----3-1-0---|
E|--------------|------3----|--------------|-------------3-|
   F7                              C                           G7
E|------------|------------------|------------|--------------|------------|
B|------------|----------------1-|------------|--------------|------------|
G|-2----------|----------2--2----|-2----------|------2--2----|-4----------|
D|----3--3----|---3--3-----------|---5--5-----|--5---------5-|----3-----3-|
A|------------|------------------|------------|--------------|------------|
E|------------|------------------|------------|--------------|------------|
   F7             C
E|--------------|-0-----------|-----------------|
B|------------1-|----1---1----|-1---------------|
G|--------2-----|-----------2-|-----------------|
D|----5---------|-------------|-----------------|
A|--------------|-------------|---------------1-|
E|--------------|-------------|-----------3-----|
   C
E|---------------|-----------|--------------|-----------|--------------|
B|---------------|-----------|--------------|-----------|--------------|
G|---------------|-----------|--------------|-----------|--------------|
D|-------1-2-1-2-|-----------|------1-2-1-2-|-----------|------1-2-1-2-|
A|-3-------------|-3-------1-|-3------------|-3-------1-|-3------------|
E|---------------|------3----|--------------|------3----|--------------|
                                                 C7
E|-----------|---------------|----------------------------------|
B|-----------|---------------|----------------------------------|
G|-----------|---------------|------4h5---4h5---4h5---4h5---4h5-|
D|-----------|-------1-2-1-2-|----------------------------------|
A|-3-------1-|-3-------------|-3--------------------------------|
E|------3----|---------------|----------------------------------|
   F7                                    C
E|-----------------|-------------------|-------------|-----------------|
B|-1---------------|-1--------1--------|---1---------|-1-------1-------|
G|-------2----2----|---2---------------|--------0----|---0-------------|
D|---------------3-|------3------------|-----------2-|------2----------|
A|-----------------|-------------------|-------------|-----------------|
E|-----------------|-------------------|-------------|-----------------|
   G7               F7
E|----------------|----------------------|---------------------------|
B|-3--------------|-------1--1--1--------|--1----------1-------------|(Play bars
G|--------4-----2-|----------------3-----|-----2---------------------|2,3,4,4,6,7,
D|----3------5----|-1------------------5-|--------5------------------|8,9)
A|----------------|----------------------|-------------------------1-|
E|----------------|----------------------|--------------------3------|
   F                            F7                           C
E|----------------------------|----------------------------|------------------|
B|-3-3-3--3-3-3--3-3-3--3-3-3-|-4-4-4--4-4-4--4-4-4--4-4-4-|-3-1------1-1-3-3-|
G|-2-2-2--2-2-2--2-2-2--2-2-2-|-2-2-2--2-2-2--2-2-2--2-2-2-|-0-0-2-0--0-0-0-0-|
D|-3-3-3--3-3-3--3-3-3--3-3-3-|-3-3-3--3-3-3--3-3-3--3-3-3-|-2-2-2-2--3-3-3-3-|
A|----------------------------|----------------------------|-----3-3----------|
E|----------------------------|----------------------------|------------------|
                     G7+ G7  Dm7  G7    F7
E|-----------------|------------------|--------------|
B|-1-1-3-1---1-3-1-|-4-4-3-3--1-1-----|--------------|
G|-0-0-0-0---0-0-0-|-4-4-4-4--2-2-2-2-|-----2-2--0-0-|
D|-3-3-3-3---3-3-3-|-3-3-3-3--3-3-3-3-|-3-3-1-1--1-1-|
A|-----------------|--------------2-2-|-6-6-3-3--3-3-|
E|-----------------|------------------|-5-5----------|
   C
E|----------------------------|------------------|
B|-1-1-1--1-1-1--1-1-1--1-1-1-|-1-1-1-1----------|
G|-0-0-0--0-0-0--0-0-0--0-0-0-|-0-0-0-0----------|(Play bars 2.3.4.5.6.7.8.9)
D|-2-2-2--2-2-2--2-2-2--2-2-2-|-2-2-2-2----------|
A|-3-3-3--3-3-3--3-3-3--3-3-3-|-3-3-3-3--------1-|
E|----------------------------|------------3-----|


An F. K. Tab,,,, Enjoy!!!!!!!!!
 Comments (click here to add a non-facebook comment)
Very nice. Great job. KK.
-kraziekhat | 6/29/2011
Hey Aussief, thanks and great job. This is a truly great instrumental! Your friend!! Ron
-harleygeezer | 6/29/2011
Home | FAQs | Privacy | Terms | Contact
Top 100 Tab Sites