Give Kudos?
Are you sure you want to give kudos to axehappy?

Add To Songbook?
Are you sure you want to add this song to your songbook?


3,408 bands | 16,377 songs
Search: Register FREE! | Login
Browse Songs:
Browse Bands:
Tool Panel
Discuss This Song

1 2 3 4 5





Bill Haley & The Comets - Rock Around The Clock (Solo)
Submitter: axehappy (103) on 1/9/05 3 comments
Month Views: 9 | Total Views: 5,360
Sound Byte: Listen
Moderator: kraziekhat | Report This Song?
Song Tools

Comment

Songbook

Kudos

Show Chords

Print

Bill Haley & The Comets  -  Rock Around The Clock (solo)

By axehappy  -  axehappy at countrytabs.com


Really fast and difficult... I can't play it very well, but the soundbyte
will give you an idea of the speed you'll need to achieve.
Includes a slow version.. :)


*****************************************************************************************


E---------------------------------------------------------------
B--5-5-5-7-5-5-5-8-5-5-5-7-0-0-0-5-5-5-7-5-5-5-8-5-5-5-7-0-0-0--
G---------------------------------------------------------------
D---------------------------------------------------------------
A---------------------------------------------------------------
E---------------------------------------------------------------


E---------------------------------------------------------------
B--5-5-5-7-5-5-5-8-5-5-5-7-0-0-0-5-5-5-7-5-5-5-8-5-5-5-7-5-5-5--
G---------------------------------------------------------------
D---------------------------------------------------------------
A---------------------------------------------------------------
E---------------------------------------------------------------


E----------------------------------7bh-7r-p5--7bh-7r-p5--7bh-7r-p5---
B--8-5-7-5-8-5-7-5-8-5-7-5-8-5-7-5----------7----------7----------7--
G--------------------------------------------------------------------
D--------------------------------------------------------------------
A--------------------------------------------------------------------
E--------------------------------------------------------------------

                                    palm mute for control.....................
           
E--7bh-7r-p5------------------------7-6-5-4--------------------------------------------
B-----------7---------5-7-6-5--------------7-6-5-4-------------------------------------
G------------6-6-0-5h6-------8-7-6----------------7-6-5-4------------------------------
D--------------------------------------------------------7-6-5-4-----------------------
A---------------------------------------------------------------7-6-5-4----------------
E----------------------------------------------------------------------7-6-5-4-0-0-4-0-


E-------------------------------------|
B-------------------------------------|
G-------------------------------------|
D-------------------------------------|
A--0-0-4-4-5-5-6-7--0-0-4-4-5-5-6-7---|
E-------------------------------------|
 Comments (click here to add a non-facebook comment)
Yo, great tab man sounds great. I love this song
-GrimReaper37 | 3/29/2005
its okay

-sdegu2 | 8/28/2005
Sounds good , well done!!
-aussief | 5/31/2009
Home | FAQs | Privacy | Terms | Contact
Top 100 Tab Sites