Give Kudos?
Are you sure you want to give kudos to aussief?

Add To Songbook?
Are you sure you want to add this song to your songbook?


3,408 bands | 16,377 songs
Search: Register FREE! | Login
Browse Songs:
Browse Bands:
Tool Panel
Discuss This Song

1 2 3 4 5





Bent Fabric - Alley Cat (Tab)
Submitter: aussief (121) on 2/5/10 2 comments
Month Views: 22 | Total Views: 8,914
Help! We need a moderator for this artist. | Report This Song?
Song Tools

Comment

Songbook

Kudos

Show Chords

Print

Music by Frank Bjorn


   C                            G7   Dm7 G7                         C
E|---------|--------|---------|------|---------|--------|---------|---------|
B|-1-0-----|--------|---------|------|-1-0-----|--------|-------0-|-1-------|
G|-----2-1-|-0-1-2--|-0-1-2-3-|-4----|-----2-1-|-0-1-2--|-0-1-2---|---------|
D|---------|--------|---------|------|---------|--------|---------|---------|
A|---------|--------|---------|------|---------|--------|---------|---------|
E|---------|--------|---------|------|---------|--------|---------|---------|


   C                            G7   Dm7 G7                         C
E|---------|--------|---------|------|---------|--------|---------|---------|
B|-1-0-----|--------|---------|------|-1-0-----|--------|-------0-|-1-------|
G|-----2-1-|-0-1-2--|-0-1-2-3-|-4----|-----2-1-|-0-1-2--|-0-1-2---|---------|
D|---------|--------|---------|------|---------|--------|---------|---------|
A|---------|--------|---------|------|---------|--------|---------|---------|
E|---------|--------|---------|------|---------|--------|---------|---------|


     F                C                D7                            G7
E|--------|-1-s-3-|--------|-1-s-3-|--------|-1-s-3-|----|---------|----------|
B|-1-3-3--|-------|-1-3-3--|-------|-1-3-3--|-------|----|-3-1-0---|----------|
G|--------|-------|--------|-------|--------|-------|----|-------2-|-0-1------|
D|--------|-------|--------|-------|--------|-------|----|---------|-----3----|
A|--------|-------|--------|-------|--------|-------|----|---------|----------|
E|--------|-------|--------|-------|--------|-------|----|---------|----------|


   C                            G7   Dm7 G7                         C
E|---------|--------|---------|------|---------|--------|---------|---------|
B|-1-0-----|--------|---------|------|-1-0-----|--------|-------0-|-1-------|
G|-----2-1-|-0-1-2--|-0-1-2-3-|-4----|-----2-1-|-0-1-2--|-0-1-2---|---------|
D|---------|--------|---------|------|---------|--------|---------|---------|
A|---------|--------|---------|------|---------|--------|---------|---------|
E|---------|--------|---------|------|---------|--------|---------|---------|


An F. K. Tab,, Enjoy!!!!
 Comments (click here to add a non-facebook comment)
That's great. Nice job. KK.
-kraziekhat | 2/6/2010
Boy this is great tab for this old timer song. We used to listen to the band at Hotel Elkton in Quincy, Illinois (Gem City) in the 1960's...brings back fond memories....v.g.
-bluerabbit10 | 3/15/2011
Home | FAQs | Privacy | Terms | Contact
Top 100 Tab Sites