Give Kudos?
Are you sure you want to give kudos to aussief?

Add To Songbook?
Are you sure you want to add this song to your songbook?


3,413 bands | 16,403 songs
Search: Register FREE! | Login
Browse Songs:
Browse Bands:
Tool Panel
Discuss This Song

1 2 3 4 5





Ben E King - Stand By Me (Tab)
Submitter: aussief (96) on 2/10/10 1 comment
Month Views: 29 | Total Views: 7,028
Moderator: EVILUTION | Report This Song?
Song Tools

Comment

Songbook

Kudos

Show Chords

Print

Words and Music by Ben E King, Jerry Leiber and Mike Stoller

 Intro Bass
  C                         Am    G   Am          F           G
E|------------|-----------|---------|-----------|-----------|-----------|
B|------------|-----------|---------|-----------|-----------|-----------|
G|------------|-----------|---------|-----------|-----------|-----------|
D|------------|-----------|---------|-----------|-----------|-----------|
A|-3--3-----2-|-3--3--3-2-|-0--0----|-0--0--0---|---------0-|---------2-|
E|-------3----|-----------|-------3-|---------3-|-1--1--1---|-3--3--3---|

   C
E|----------|--------|
B|----------|--------|
G|----------|--------|
D|----------|--------|
A|-3--3---2-|-3--3---|
E|------3---|--------|


G7        C
When the night has come
Am
And the land is dark
         F           G7              C
And the moon is the only light we'll see
 C
No, I won't be afraid,
      Am
No, I won't be afraid
         F           G7
Just as long as you stand,
         C
Stand by me.
                    C                 Am
So darling darling, stand by me, oh, stand by me,
     F      G7           C
Oh, stand, stand by me, stand by me.

        C
If the sky that we look upon
Am
Should tumble and fall
        F               G7             C
Or the Mountain should crumble in the sea,
C
I won't cry,
C
I won't cry,
     Am
No I won't shed a tear.
         F           G7             C
Just as long as you stand, stand by me.
C                                       Am
So ,darling, darling, stand by me, oh, stand by me
     F      G7           C
Oh, stand, stand by me, stand by me.

An F. K. Tab Enjoy!!!

 Comments (click here to add a non-facebook comment)
Very nice.KK
-kraziekhat | 2/11/2010
Home | FAQs | Privacy | Terms | Contact
Top 100 Tab Sites