Give Kudos?
Are you sure you want to give kudos to aussief?

Add To Songbook?
Are you sure you want to add this song to your songbook?


3,408 bands | 16,377 songs
Search: Register FREE! | Login
Browse Songs:
Browse Bands:
Tool Panel
Discuss This Song

1 2 3 4 5





Barrett Strong - Money ( That`s What I Want) (Tab)
Submitter: aussief (120) on 12/31/10 1 comment
Month Views: 73 | Total Views: 6,051
Help! We need a moderator for this artist. | Report This Song?
Song Tools

Comment

Songbook

Kudos

Show Chords

Print

Words and music by Berry Gordy and Janie Bradford

Intro

   Em      A  Em          A  Em              A  Em          A  Em 
E|----------------|----------------|----------------|----------------|
B|----------------|----------------|----------------|----------------|
G|----------------|----------------|----------------|----------------|
D|----------------|----------------|----------------|----------------|
A|-----2-3-4--2---|-2---2-4--2-2-2-|-----2-3-4--2---|-2---2-4--2-2-2-|
E|-3-3----------3-|---3------------|-3-3----------3-|---3------------|

   B              A                 Em               B
E|--------------|-----------------|----------------|---------------|
B|--------------|-----------------|----------------|---------------|
G|--------------|-----------------|----------------|---------------|
D|--------------|-----------------|----------------|---------------|
A|-2-----2--2-2-|-2-------2-------|----------0-----|-2-2-2-2-2-2-2-|
E|---5-3----5-3-|---5-3-2-5-3-0-3-|-0-0-3-4----3-0-|---------------|

 Em                          
The best things in life are free (play riff)
   B     Em
E|---------|
B|---------|
G|-------0-| (riff)
D|-------2-|
A|-2-0-2-2-|
E|---------|
Em
But you can keep 'em for the birds and bees
             A                    
Now give me money (that's what I want)
               Em    A            Em
That's what I want (that's what I want)
               B7           A
That's what I want (that's what I want), yeah
Em      A      Em   B7
That's what I want

Em
Your lovin' gives me a thrill (play riff)
Em
But your lovin' don't pay my bills
             A
Now give me money (that's what I want)
              Em     A            Em
That's what I want (that's what I want)
              B7             A
That's what I want (that's what I want), yeah
Em      A      Em   B7
That's what I want

Em
Money don't get everything, it's true (play riff)
Em
What it don't get, I can't use
             A
Now give me money (that's what I want)
              Em     A            Em
That's what I want (that's what I want)
              B7            A
That's what I want (that's what I want), yeah
Em      A     Em   B7
That's what I want

(Repeat Intro)

B7                 Em     A      Em     A
Well, now give me money (that's what I want)
          Em      A     Em     A
A lot of money (that's what I want)
               Em       A            Em     A
Whoa, yeah, I wanna be free (that's what I want)
 Em             A             Em
Whoa, a lot of money (that's what I want)
               B7           A
That's what I want (that's what I want), yeah
Em      A      Em   B7
That's what I want

B7                 Em     A     Em      A
Well, now give me money (that's what I want)
          Em     A      Em     A
A lot of money (that's what I want)
                Em      A            Em      A
Whoa, yeah, you owe me money (that's what I want)
Em               A             Em
Oh, now give me money (that's what I want)
              B7            A
That's what I want (that's what I want), yeah
Em      A      Em   B7
That's what I want. 


 An F. K. Tab,,,, Enjoy!!!!!!



 Comments (click here to add a non-facebook comment)
Nice job. KK.
-kraziekhat | 1/1/2011
Home | FAQs | Privacy | Terms | Contact
Top 100 Tab Sites