Give Kudos?
Are you sure you want to give kudos to yinielin?

Add To Songbook?
Are you sure you want to add this song to your songbook?


3,434 bands | 16,528 songs
Search: Register FREE! | Login
Browse Songs:
Browse Bands:
Tool Panel
Discuss This Song

1 2 3 4 5



Bad Company - I Feel Like Makin Love (Tab)
Submitter: yinielin (1) on 11/14/03
Month Views: 3 | Total Views: 3,298
Moderator: EMRLDEYZS | Report This Song?
Song Tools

Comment

Songbook

Kudos

Show Chords

Print

By:Yinielin
Bad Company, Feel Like Making Love


CHORUS
      D        D       D   G   D
E-----2--------2-------2---3---3---
B-----3--------3-------3---3---2---
G-----2--------2-------2---0---3---
D-----0--------0-------0---0---0---
A-3-5----3--5-----3--5-----2-------
E--------------------------3-------


      D        D       D   G   D
E-----2--------2-------2---3---3---
B-----3--------3-------3---3---2---
G-----2--------2-------2---0---3---
D-----0--------0-------0---0---0---
A-3-5----3--5-----3--5-----2-------
E--------------------------3-------


      D        D       D   G   D
E-----2--------2-------2---3---3---
B-----3--------3-------3---3---2---
G-----2--------2-------2---0---3---
D-----0--------0-------0---0---0---
A-3-5----3--5-----3--5-----2-------
E--------------------------3-------


      D        D       D  C D G F D   
E-----2--------2-------2--0-2-3-1-2----
B-----3--------3-------3--1-3-3-1-3----
G-----2--------2-------2--0-2-0-2-2----
D-----0--------0-------0--2-0-0-3-0----
A-3-5----3--5-----3--5----3---2-3------
E-----------------------------3-1------
 Comments (click here to add a non-facebook comment)
Home | FAQs | Privacy | Terms | Contact
Top 100 Tab Sites