Give Kudos?
Are you sure you want to give kudos to yinielin?

Add To Songbook?
Are you sure you want to add this song to your songbook?


3,425 bands | 16,469 songs
Search: Register FREE! | Login
Browse Songs:
Browse Bands:
Tool Panel
Discuss This Song

1 2 3 4 5



Bad Company - Feel Like Makin Love (Solo)
Submitter: yinielin (0) on 11/14/03
Month Views: 2 | Total Views: 3,535
Moderator: EMRLDEYZS | Report This Song?
Song Tools

Comment

Songbook

Kudos

Show Chords

Print

By:Yinielin
Feel Like Makin Love, Bad Company


E--------------------------------------------------
B--------------------------------------------------
G----------------14--12--------12-16--14h16p14--12-
D------16--14h16---------14h16---------------------
A------17------------------------------------------
E-15/----------------------------------------------

E-----------------------------------------------
B-----------------------------------------------
G-------------14--12--------12-16--14h16p14--12-
D---16--14h16---------14h16---------------------
A---17------------------------------------------
E-----------------------------------------------
 Comments (click here to add a non-facebook comment)
Home | FAQs | Privacy | Terms | Contact
Top 100 Tab Sites