Give Kudos?
Are you sure you want to give kudos to yinielin?

Add To Songbook?
Are you sure you want to add this song to your songbook?


3,430 bands | 16,491 songs
Search: Register FREE! | Login
Browse Songs:
Browse Bands:
Tool Panel
Discuss This Song

1 2 3 4 5



Bad Company - Feel Like Makin Love (Intro)
Submitter: yinielin (3) on 11/14/03
Month Views: 14 | Total Views: 3,703
Moderator: EMRLDEYZS | Report This Song?
Song Tools

Comment

Songbook

Kudos

Show Chords

Print

By:Yinielin
Feel Like makin Love, Bad Company



E--10-10--8-8-8-8--7-7-8p7-7-7-7----------
B--10-10--8-8-8-8--8-8-8---8-8-8----------
G--11-11--9-9-9-9--7-7-7---7-7-7----------
D-----------------------------------------
A-----------------------------------------
E-----------------------------------------

E--10-10--8-8-8-8--7-7-8-2---------------
B--10-10--8-8-8-8--8-8-8-3---------------
G--11-11--9-9-9-9--7-7-7-2---------------
D----------------------------------------
A----------------------------------------
E----------------------------------------
 Comments (click here to add a non-facebook comment)
Home | FAQs | Privacy | Terms | Contact
Top 100 Tab Sites