Give Kudos?
Are you sure you want to give kudos to DaveWH?

Add To Songbook?
Are you sure you want to add this song to your songbook?


3,065 bands | 13,742 songs
Search: Register FREE! | Login
Browse Songs:
Browse Bands:
Tool Panel
Discuss This Song

1 2 3 4 5





Bachman Turner Overdrive - Gimme Your Money Please (Tab)
Album: Bachman-Turner Overdrive II (1973)
Submitter: DaveWH (12) on 1/8/07
Month Views: 132 | Total Views: 5,301
Moderator: jackshaw3 | Report This Song?
Song Tools

Comment

Songbook

Kudos

Show Chords

Print

BTO - Gimme Your Money Please

Chords : 

  A    E    B
|-------------|
|-------------|
|------9------|
|-7----9----9-|
|-7----7----9-|
|-5---------7-|

Intro :  A - E - B x 4

  A     E     B                      A     E     B
|----------------------------------|--------------------------------7-|
|----------------------------------|-------------------------7--7-9---|
|--------------------------------4-|-------------4----4--6s8----------|
|-------------------------4--4-6---|-7--7--6-4-6----------------------|
|-0--0--------2----2--4s6----------|----------------------------------|
|-------4-2-4----------------------|----------------------------------|


  A       E       B                                  A             E          B
|--------------------------------------------------|----------------------------|
|-10--10--9-7-7---10b(12)r10b(12)--10-(12)-10-(12)-|-10-b(12)r10-7--------------|
|--------------------------------------------------|---------------9-7h8--------|
|--------------------------------------------------|---------------------9----9-|
|--------------------------------------------------|--------------------------9-|
|--------------------------------------------------|--------------------------7-|


[Verse]
 
       E                         B
I was walking on down the alley

       E                     B
When a face I've never seen

       E                         B
Came so from deep in the darkness

             A       E          B
And his mouth came on real mean

         E                        B
And I saw that he'd been liquored

           A                                E                B
And he staggered up to -- you know -- he staggered up to his feet

              E                      B              
And he said, Boy, you'd better move real slow


[Chorus]

    A          E     B
And gimme your money please.

          A          E     B
He said, Gimme your money please.

                    A
Wasn't that strange

                   E        B
Wasn't that strange indeed

                    A
Wasn't that strange
                   E        B
Wasn't that strange indeed

          A          E     B
He said, Gimme your money please.

          A          E     B
He said, Gimme your money please.


[verse]
Being born and raised in New York
There ain't nothing you won't see
'Cause the streets are filled with bad goings-on
And you know that's no place to be

But my car broke down in the evening
You know it just stopped stone cold
Stopped stone cold in the street
And a dirty mean man with a shot glass eye

[chorus]
He said, Gimme your money please.
He said, Gimme your money please.
Wasn't that strange
Wasn't that strange indeed
Wasn't that strange
Wasn't that strange indeed
He said, Gimme your money please.
He said, Gimme your money please.

[verse]
Being born and raised in New York
There ain't nothing you won't see
'Cause the streets are filled with bad goings-on
And you know that's no place to be

But my car broke down in the evening
You know it just stopped stone cold
Stopped stone cold in the street
And a dirty mean man with a shotgun in his hand

[chorus]
He said, Gimme your money please.
He said, Gimme your money please.
Wasn't that strange
Wasn't that strange indeed
Wasn't that strange
Wasn't that strange indeed
He said, Gimme your money please.
He said, Gimme your money please.
He said, Gimme your money please.
He said, Gimme your money please.
(Awww!)
 Comments (click here to add a non-facebook comment)
Home | FAQs | Privacy | Terms | Contact
Top 100 Tab Sites