Give Kudos?
Are you sure you want to give kudos to DaveWH?

Add To Songbook?
Are you sure you want to add this song to your songbook?


3,050 bands | 13,605 songs
Search: Register FREE! | Login
Browse Songs:
Browse Bands:
Tool Panel
Discuss This Song

1 2 3 4 5





Arlo Guthrie - Alice's Restaurant (Tab)
Submitter: DaveWH (16) on 8/12/03
Month Views: 124 | Total Views: 10,342
Moderator: scadet | Report This Song?
Song Tools

Comment

Songbook

Kudos

Show Chords

Print

Alices Restaurant  by Arlo Guthrie

Chords :

G6 - 32000x
C  - x32010
D9 - x54530  and 5x4530 in 7th measure for A bass note
A  - x02225
F  - 1x321x  bass is played using left hand thumb.
D7 - 2x021x  bass is played using left hand thumb.


              C                   A
                  ____  ____          ____  ____
  |   |   |   |   |  |  |  |  |   |   |  |  |  |   |
|-----------|-0------------0----|-----5-----3--------|
|-0---1---3-|-----1-----4-------|--------2-----5-----|
|-----------|--------0----------|--------------------|
|-----------|-----2-----------2-|-----2------------2-|
|-----0---2-|-3---------3-------|-0---------0--------|
|-3---------|-------------------|--------------------|


  D9       G6        C                        C
  ____     ____      ____  ____  ____  ____      ____  ____  ____
  |  |  |  |  |  |   |  |  |  |  |  |  |  |   |  |  |  |  |  |  |
|----0--------0----|------------------------|-0-----------0-------|
|-3--------0-------|-1--0-----1-----3-------|----1-----4----------|
|------------------|----------------------0-|-------0-----------0-|
|-------4----------|------------------------|----2-----------2----|
|-5--------------2-|-3-----------0-----2----|-3--------3----------|
|----------3-------|-------3----------------|---------------------|


  A                  D9                    G 
        ____  ____      ____  ____  ____   ____  ____  ____  ____
  |  |  |  |  |  |   |  |  |  |  |  |  |   |  |  |  |  |  |  |  |
|----5--3--5-------|-------------0-------|------------------------|
|------------------|----3-----3----------|----1-----2-----3-------|
|----------------0-|-------5-----------0-|----------------------0-|
|----2--------2----|----4-----------4----|------------------------|
|-0-----0----------|-5-------------------|-------0-----1-----2----|
|------------------|----------5----------|-3----------------------|


  C                                        F
     ____  ____  ____      ____  ____            ____  ____    
  |  |  |  |  |  |  |   |  |  |  |  |  |   |  |  |  |  |  |
|-0-----------0-------|-0--0-----0--3----|------------------|
|----------4--------1-|-------1----------|----0--1--3-------|
|-------0-------------|------------------|-2--------------0-|
|----2-----------2----|----2-----------2-|----3--------3----|
|-3--------3----------|-3--------3-------|------------------|
|---------------------|------------------|-1-----1----------|

 
  D7                       C                     A
  ____  ____  ____  ____      ____  ____  ____      ____  ____  ____
  |  |  |  |  |  |  |  |   |  |  |  |  |  |  |   |  |  |  |  |  |  |
|------------------------|-0-----------0-------|-5--5-----3----------|
|-1--3--------1--3-------|----1-----4----------|-------2-----5-------|
|----------2-----------0-|-------0-----------0-|---------------------|
|-------0-----------0----|----2-----------2----|----2--------------0-|
|------------------------|-3--------3----------|-0--------0-----2----|
|-2-----------2----------|---------------------|---------------------|

 
  D9          G6        C
  ____  ____  ____ 
  |  |  |  |  |  |  |
|----0-----------0----|-------||
|-3-----------0-------|-1-----||
|----------0----------|-0----.||  repeat over and over...
|-------4-------------|------.||
|-5-----------------2-|-3-----||
|-------------3-------|-------||
 Comments (click here to add a non-facebook comment)
Home | FAQs | Privacy | Terms | Contact
Top 100 Tab Sites