Give Kudos?
Are you sure you want to give kudos to aussief?

Add To Songbook?
Are you sure you want to add this song to your songbook?


3,412 bands | 16,395 songs
Search: Register FREE! | Login
Browse Songs:
Browse Bands:
Tool Panel
Discuss This Song

1 2 3 4 5





Aretha Franklin - Spanish Harlem (Tab)
Submitter: aussief (67) on 7/14/15 1 comment
Month Views: 9 | Total Views: 1,190
Help! We need a moderator for this artist. | Report This Song?
Song Tools

Comment

Songbook

Kudos

Show Chords

Print

Words and Music by Jerry Leiber and Phil Spector

 A                          E7
(La-la-la la la la la la la la)
 A                          E7
(La-la-la la la la la la la la)

 A              E9  A           E9       A
(There's a rose in black at Spanish Harlem)
 A      E9   A           E9     A
(A rose in black at Spanish Harlem)

D
It is the special one
D
It never sees the sun
D
It only comes up
D
When the moon is on the run
              A
And all the stars are gleaming
E
It's growing in the street
E
Right up through the concrete
                    A
But soft sweet and dreamy
 A       E9  A              E9  A
(There is a rose in Spanish Harlem)
 A       E9  A              E9  A
(A rose in black at Spanish Harlem)

D
With eyes as black as coal
D
That look down in his soul
D
It start a fire there and then he looses control
          A
I'm gonna beg his par-ar-ar-ardon yeah
E
He's going to pick that rose
E
And watch her as she grows
        A
In his garden

[Instrumental]
   A      E9  A      E9   A              A   E9  A        E9     A
E|----------|-5-5-7-8-7-|-5-----|------|-------|-5--5--7--8--7-|-5----|------|
B|-5-5-5--7-|-5-5-7-8-7-|-5-----|------|-5 5-7-|-5--5--7--8--7-|-5----|------|
G|-6-6-6--7-|-----------|-------|------|-6-6-7-|---------------|------|------|
D|----------|-----------|-------|------|-------|---------------|------|------|
A|----------|-----------|-------|------|-------|---------------|------|------|
E|----------|-----------|-------|------|-------|---------------|------|------|

   D
E|-7-5----7-|-9-5--7-5---|-7-5----7-5----|-7-5-------7-5-7-9-5-|---5-7-s-8-s-7-5-9-s|
B|-----7----|----------7-|-----7-------7-|-----7---------------|--------------------|
G|----------|------------|---------------|--------7------------|--------------------|
D|----------|------------|---------------|---------------------|--------------------|
A|----------|------------|---------------|---------------------|--------------------|
E|----------|------------|---------------|---------------------|--------------------|

   A                                 E
E|-s-8-s7--5-----------|-----5-----|-----------|------------|----------------|
B|-----------------5-s-|-s7--------|-----------|-5-5--------|-----------5-s-7|
G|--------------6------|-----------|-4-4-6-7-8-|--------7-6-|-7-6-7-s-9------|
D|------------7--------|-----------|-----------|------------|----------------|
A|---------------------|-----------|-----------|------------|----------------|
E|---------------------|-----------|-----------|------------|----------------|

                     A
E|-----5-------|---------------|
B|--5-----7--7-|---------------|
G|-------------|--6------------|
D|-------------|-----7---------|
A|-------------|---------------|
E|-------------|---------------|

  A       E9 A              E9  A
(There is a rose in Spanish Harlem uum uum)
 A      E9  A               E9  A
(A rose in black at Spanish Harlem uum uum)

D
With eyes as black as coal
D
That look down in his soul
D
And start a fire there and then he loses control
             A
And I wanna beg his par-ar-ar-don
E 
He's going to pick that rose
E
And watch her as she grows
        A
In his garden
  A                         E7
(La-la-la- la la la la la la la)
  A                      E7
(La la la-la-la la-la-la la)
  A                      E7
(La la la-la-la la-la-la la)

[Fades]
  A                      E7
(La la la-la-la la-la-la la)
 
An F. K. Tab,,,,,Enjoy!!!!!!!

 Comments (click here to add a non-facebook comment)
Always liked this song. Great tab!!! KK.
-kraziekhat | 7/15/2015
Home | FAQs | Privacy | Terms | Contact
Top 100 Tab Sites