Give Kudos?
Are you sure you want to give kudos to aussief?

Add To Songbook?
Are you sure you want to add this song to your songbook?


3,412 bands | 16,395 songs
Search: Register FREE! | Login
Browse Songs:
Browse Bands:
Tool Panel
Discuss This Song

1 2 3 4 5





Anton Karas - The Third Man Theme (Tab)
Submitter: aussief (67) on 7/10/09 1 comment
Month Views: 36 | Total Views: 11,256
Help! We need a moderator for this artist. | Report This Song?
Song Tools

Comment

Songbook

Kudos

Show Chords

Print

Music by Anton Karas     (Also known as The Harry Lime Theme)

   C                       G7
E|--------------|--------|--------------|--------|--------------|--------------|
B|--------------|--------|--------------|--------|----------0---|-0----0----0--|
G|-0-1-2-1-2-1--|--2-----|-0-1-2-1-2-1--|--2-----|-0-1-2-3----3-|---3----3-----|
D|--------------|--------|--------------|--------|--------------|--------------|
A|--------------|--------|--------------|--------|--------------|--------------|
E|--------------|--------|--------------|--------|--------------|--------------|

   C                                          G7
E|----------|--------|--------------|-------|---------------|--------|
B|----------|--------|--------------|-------|---------------|--------|
G|-2-1-2-1--|-2------|-0-1-2--1-2-1-|-2-----|-0-1-2--1-2-1--|-2------|
D|----------|--------|--------------|-------|---------------|--------|
A|----------|--------|--------------|-------|---------------|--------|
E|----------|--------|--------------|-------|---------------|--------|

                             C                                 G7
E|-------------|--------0--|-------|-|--------------|--------|-------------|
B|---------0---|-0---0-----|-1-----|-|--------------|--------|-------------|
G|-0-1-2-3---3-|---3-------|-------|-|-0-1-2--1-2-1-|-2------|-0-1-2-1-2-1-|
D|-------------|-----------|-------|-|--------------|--------|-------------|
A|-------------|-----------|-------|-|--------------|--------|-------------|
E|-------------|-----------|-------|-|--------------|--------|-------------|

                                  C                      A7
E|------|--------------|--------|----------|-----------|---------|-----------|
B|------|--------------|-0------|----------|-----------|---------|-----------|
G|-2----|-0-1-2--1-2-3-|--------|-2-1-2-1--|-2-1-2-1-2-|-2-1-2-1-|-2-1-2-----|
D|------|--------------|--------|----------|-----------|---------|-------2---|
A|------|--------------|--------|----------|-----------|---------|-----------|
E|------|--------------|--------|----------|-----------|---------|-----------|

  Dm     A7   Dm          G7                           C~~~~~~~~~~~~~~~~~~
E|----------|-----------|--------------|--------0---|---------|----------|
B|----------|-----------|--------------|-0----------|--1------|----------|
G|-0--------|--------2--|-0-1-2-1-2-3--|------------|---------|----------|
D|---4-3-2--|-0---------|--------------|------------|---------|----------|
A|----------|-----------|--------------|------------|---------|----------|
E|----------|-----------|--------------|------------|---------|----------|


Another F. K. tab Enjoy!!
 Comments (click here to add a non-facebook comment)
Good one. KK.
-kraziekhat | 7/11/2009
Home | FAQs | Privacy | Terms | Contact
Top 100 Tab Sites