Give Kudos?
Are you sure you want to give kudos to EMRLDEYZS?

Add To Songbook?
Are you sure you want to add this song to your songbook?


2,917 bands | 13,100 songs
Search: Register FREE! | Login
Browse Songs:
Browse Bands:
Tool Panel
Discuss This Song

1 2 3 4 5





America - You Can Do Magic (Tab)
Submitter: EMRLDEYZS (275) on 3/15/04
Month Views: 46 | Total Views: 3,057
Moderator: mo_freestyle | Report This Song?
Song Tools

Comment

Songbook

Kudos

Show Chords

Print

 Intro

             N.C.
 4/4
  Gtr I
|---------||-19-------17-------15----|----15-------15----17-----|
|---------||----20-------19-------17-|-------17-------17----19--|
|---------||-------21-------19-------|-17-------17--------------|
|---------||-------------------------|--------------------------|
|---------||-------------------------|--------------------------|
|---------||-------------------------|--------------------------|


  Em       Dsus2/A     Cmaj7              Dsus2/A
  Gtr III
   
|-19-------17-------15----|------15-------------15----17----|
|----20-------19-------17-|---------17-------------17----19-|
|-------21-------19-------|--17-----------17----------------|
|-------------------------|---------------------------------|
|-------------------------|---------------------------------|
|-------------------------|---------------------------------|
|
| Gtr II
|                             ~~~~
|-------------------------|---------------------------------|
|-17-------15-------12----|-(12)----10h12p10----10----------|
|----16-12----14-11-------|------------------12----12--9----|
|-------------------------|------------------------------12-|
|-------------------------|---------------------------------|
|-------------------------|---------------------------------|


  Em                Dsus2/A      Cmaj7          Dsus2/A
   
|-19----------------17--------15----|-----15--------15----------17--------||
|--------20------------19--------17-|--------17---------17-----------19---||
|------------21------------19-------|-17--------17------------------------||
|-----------------------------------|-------------------------------------||
|-----------------------------------|-------------------------------------||
|-----------------------------------|-------------------------------------||
|
|-----------------------------------|--------15-12-(12)-------------------||
|--8b8.5-(8)----(8)-----------------|-------------------15b17==(15)-(15)--||
|--------------------9-(9)----------|-(9)---------------------------------||
|-----------------------------------|-------------------------------------||
|-----------------------------------|-------------------------------------||
|-----------------------------------|-------------------------------------||


 1st Verse
  Em     Dsus2/A   Cmaj7       Dsus2/A  Em   Dsus2/A   Cmaj7      Dsus2/A
   
|--12----10-(10)---8-|--(8)-----10----|-12---10-(10)---8-|-(8)----10----|
|--12--------------8-|--(8)-----10----|-12-------------8-|-(8)----10----|
|--12----11-(11)---9-|--(9)-----11----|-12---11-(11)---9-|-(9)----11----|
|--------------------|----------------|------------------|--------------|
|--------------------|----------------|------------------|--------------|
|--------------------|----------------|------------------|--------------|
|
|             >
|   ~~~~~~~~~~~~~~~~~~~~~~~~~
|--------------------|----------------|------------------|--------------|
|-(15)------(15)-----|-(15)r----------|------------------|--------------|
|--------------------|----------------|------------------|--------------|
|--------------------|----------------|------------------|--------------|
|--------------------|----------------|------------------|--------------|
|--------------------|----------------|------------------|--------------|


  Em   Dsus2/A   Cmaj7     Dsus2/A  Em   Dsus2/A   Cmaj7      Dsus2/A
 

|-12---10-(10)---8-|-(8)----10----|-12---10-(10)---8-|-(8)----10----|
|-12-------------8-|-(8)----10----|-12-------------8-|-(8)----10----|
|-12---11-(11)---9-|-(9)----11----|-12---11-(11)---9-|-(9)----11----|
|------------------|--------------|------------------|--------------|
|------------------|--------------|------------------|--------------|
|------------------|--------------|------------------|--------------|


  Em   Dsus2/A   Cmaj7     Dsus2/A  Em   Dsus2/A   Cmaj7      Dsus2Em/D
   
|-12---10-(10)---8-|-(8)----10----|-12---10-(10)---8-|-(8)----10----|
|-12-------------8-|-(8)----10----|-12-------------8-|-(8)----10----|
|-12---11-(11)---9-|-(9)----11----|-12---11-(11)---9-|-(9)----11----|
|------------------|--------------|------------------|--------------|
|------------------|--------------|------------------|--------------|
|------------------|--------------|------------------|--------------|


  Em   Dsus2/A   Cmaj7     C       D/A
   
|-12---10-(10)---8-|-(8)---------|-10----10----|-------10----||
|-12-------------8-|-(8)----8----|-10----------|-10----------||
|-12---11-(11)---9-|-(9)----9----|-11----11----|-------11----||
|------------------|-------------|-------------|-------------||
|------------------|-------------|-------------|-------------||
|------------------|-------------|-------------|-------------||


 Chorus
  $
  Em  Dsus2/A    Cmaj7Dsus2/A Em/Em   Dsus2/A   Cmaj7     ED/D D Ds2 Em/D
  
|-------17--17-|-19----(19)----|-12---10-(10)---8-|-(8)----10----|
|-8-----19--19-|-20----(20)----|-12-------------8-|-(8)----10----|
|-9-----19--19-|-21----(21)----|-12---11-(11)---9-|-(9)----11----|
|--------------|---------------|------------------|--------------|
|--------------|---------------|------------------|--------------|
|--------------|---------------|------------------|--------------|


  Em  D Ds2/Em/D Cmaj7Dsus2/D Em/Em   Dsus2/A   Cmaj7     ED/D  Em/D
  

|-------17--17-|-19----(19)----|-12---10-(10)---8-|-(8)----10----||
|-8-----19--19-|-20----(20)----|-12-------------8-|-(8)----10----||
|-9-----19--19-|-21----(21)----|-12---11-(11)---9-|-(9)----11----||
|--------------|---------------|------------------|--------------||
|--------------|---------------|------------------|--------------||
|--------------|---------------|------------------|--------------||


 Post-Chorus
  Em     Dsus2/A D       Cmaj7       Dsus2/A   Em/Em
  
  Gtr IV
|-12-----10-(10)----------8-|--(8)----10--------|
|-12----------------------8-|--(8)----10--------|
|-12-----11-(11)----------9-|--(9)----11--------|
|---------------------------|-------------------|
|---------------------------|-------------------|
|---------------------------|-------------------|
|
| Gtr I
|-----19-17-(17)-22-(22)-19-|-(19)--------(22)--|
|---------------------------|---------22--------|
|---------------------------|-------------------|
|---------------------------|-------------------|
|---------------------------|-------------------|
|---------------------------|-------------------|
|
| Gtr II
|---------------------------|-------------------|
|---------------------------|-------------------|
|---------------------------|-------------------|
|---------------------------|-------------------|
|---------------------------|-------------------|
|---------------------------|-------------------|


            Dsus2/A                               Cmaj7
|--12-------10-------(10)--------------------------8--|
|--12----------------------------------------------8--|
|--12-------11-------(11)--------------------------9--|
|-----------------------------------------------------|
|-----------------------------------------------------|
|-----------------------------------------------------|
|
|-(19)--(19)17-------(17)------22------(22)-------19--|
|-----------------------------------------------------|
|-(21)------------------------------------------------|
|-----------------------------------------------------|
|-----------------------------------------------------|
|-----------------------------------------------------|
|
|--------19s15--(19)s=====(15)----(19)s=====(15)------|
|-----------------------------------------------------|
|-----------------------------------------------------|
|-----------------------------------------------------|
|-----------------------------------------------------|
|-----------------------------------------------------|


         Dsus2/Em/Em                     Dsus2/A
 Comments (click here to add a non-facebook comment)
Home | FAQs | Privacy | Terms | Contact
Top 100 Tab Sites