Give Kudos?
Are you sure you want to give kudos to EMRLDEYZS?

Add To Songbook?
Are you sure you want to add this song to your songbook?


3,420 bands | 16,455 songs
Search: Register FREE! | Login
Browse Songs:
Browse Bands:
Tool Panel
Discuss This Song

1 2 3 4 5



Alter Bridge - Broken Wings (Tab)
Album: One Day Remains (2004)
Submitter: EMRLDEYZS (107) on 8/9/05
Month Views: 11 | Total Views: 2,534
Moderator: 1Micronesia | Report This Song?
Song Tools

Comment

Songbook

Kudos

Show Chords

Print

Transcribed by Eddie Ruiz

Tuning: Bb Ab Db Gb Bb Eb

 Intro
  
  Bm7                             A
Gtr I
|-------------------------------|------------------------|
|----10-------------------------|------------------------|
|-----9b10r(9)p7------------7---|-6------6s7---7-(7)-----|
|----------------9-(9)--------9-|----9-------9-------7---|
|------------------------/9-----|-0----0-----------------|
|-0-----------------------------|----------------------0-|


  G6
                    ~~~         ~~
|--------10p0------------------------|
|---------------10-10s12-12p10-------|
|------------------------------12----|
|-9----------------------------------|
|---10-------------------------------|
|-8----8------8-------------------0--|


  F#7
                          ~
|-------9p0------------------|
|----------------------------|
|-------------9-9s11-11p9s7--|
|-8--------------------------|
|---9------------------------|
|-7---7-----7----------------|


  Bm                         A
                                                 ~
|----10-9-7----------------|-------------------------|
|-----------7-(7)----------|-------------------------|
|----------------------7---|-6--------7---7-9b11-7---|
|------------------------9-|----9-7h9---9------------|
|-------------------/9-----|-0-----------------------|
|-0------------------------|-----------------------0-|


  G6                                  F#7
                    ~~~~~       ~~                     ~~
|--------10p0-----------------------|-------9p0-------------|
|---------------10-10-12-12p10------|-----------------------|
|------------------------------12---|-------------9-9s11----|
|-9---------------------------------|-8---------------------|
|---10------------------------------|---9-------------------|
|-8----8------8-------------------0-|-7---7-----7-----------|


  Dadd4           Em9               Bmadd6
  Gtr I
|---------------------------------|---------------------------------|
|---------------------------------|---------------------------------|
|---------0---------------0-------|---------0---------------0-------|
|---4-------4---4---4-------4---4-|---4-------4---4---4-------4---4-|
|-----5-------5-------5-------5---|-----5-------5-------5-------5---|
|-3-----3---------5-----5---------|-0-----0---------0-----0---------|


  Dadd4           Em9               Bmadd6
|---------------------------------|---------------------------------||
|---------------------------------|-------------------------0-------||
|---------0---------------0-------|---------0-----------------0-----||
|---4-------4---4-----4-----4---4-|---4-------4---4---4---------4---||
|-----5-------5-----5---------5---|-----5-------5-------5---------5-||
|-3-----3---------5-----5---------|-0-----0---------0-----0---------||


 Verse
  Dadd4           Em9               Bmadd6
|---------------------------------|---------------------------------|
|---------------------------------|---------------------------------|
|---------0---------------0-------|---------0---------------0-------|
|---4-------4---4---4-------4---4-|---4-------4---4---4-------4---4-|
|-----5-------5-------5-------5---|-----5-------5-------5-------5---|
|-3-----3---------5-----5---------|-0-----0---------0-----0---------|


  Dadd4           Em9               Bmadd6
|---------------------------------|---------------------------------|
|---------------------------------|---------------------------------|
|---------0---------------0-------|---------0---------------0-------|
|---4-------4---4---4-------4---4-|---4-------4---4---4-------4---4-|
|-----5-------5-------5-------5---|-----5-------5-------5-------5---|
|-3-----3---------5-----5---------|-0-----0---------0-----0---------|


  Dadd4           Em9               Bmadd6
|---------------------------------|---------------------------------|
|---------------------------------|---------------------------------|
|---------0---------------0-------|---------0---------------0-------|
|---4-------4---4---4-------4---4-|---4-------4---4---4-------4---4-|
|-----5-------5-------5-------5---|-----5-------5-------5-------5---|
|-3-----3---------5-----5---------|-0-----0---------0-----0---------|


  Dadd4           Em9               Bmadd6
|---------------------------------|-----------------------------------||
|---------------------------------|-------------------------0---------||
|---------0---------------0-------|---------0-----------------0-------||
|---4-------4---4---4-------4---4-|---4-------4---4---4---------0-----||
|-----5-------5-------5-------5---|-----5-------5-------5---------/12-||
|-3-----3---------5-----5---------|-0-----0---------0-----0-----------||


 Pre-Chorus
  Aadd9                G6                   Bmadd6
  Gtrs I, II
|-------------0-----------------0---------|------------------------------------|
|---------------0-----------------0-------|------------------------------------|
|-----------------0-----------------0-----|---------0---------------0----------|
|----11-------------11---9----------------|---4-------4---4---4-------4-----11-|
|-------12-----------------10---------10\-|-----5-------5-------5-------/12-12-|
|-10-------10----------8------8-----------|-0-----0---------0-----0------------|


  Aadd9                G6                   Bmadd6
|-------------0-----------------0---------|------------------------------------|
|---------------0-----------------0-------|------------------------------------|
|-----------------0-----------------0-----|---------0---------------0----------|
|----11-------------11---9----------------|---4-------4---4---4-------4-----11-|
|-------12-----------------10---------10\-|-----5-------5-------5-------/12-12-|
|-10-------10----------8------8-----------|-0-----0---------0-----0------------|


  A9                   G6             F#11
|-------------0-----------------0---|-!0-----------||
|---------------0-----------------0-|-!0-----------||
|-----------------0-----------------|-!0-----------||
|----11-------------11---9----------|-!8-----------||
|-------12-----------------10-------|-!9-----------||
|-10-------10----------8------8-----|-!7-----------||
|
| Gtr III
|-----------------------------------|--------------||
|-----------------------------------|--------------||
|-----------------------------------|--------------||
|-----------------------------------|--------------||
|-----------------------------------|--------------||
|-----------------------------------|----------0-0-||


 Chorus
  Dsus2                  A/C#
  Gtr II
  |  | | | | | |   |      |   |  |  |  |  |
  /  / / / / / /   /      /   /  /  /  /  /

  Gtr III
|----------------------|------------------------------|
|-7--7-7-7-7-7-7-7-----|------------------------------|
|-7--7-7-7-7-7-7-7-----|-14--14-14-14-14-14-14-14-----|
|-0--0-0-0-0-0-0-0-----|-11--11-11-11-12-12-12-12-----|
|-0--0-0-0-0-0-0-0-0-0-|--0---0--0--0--0--0--0--0-----|
|------------------0-0-|--------------------------0-0-|


  Bmadd9                 G          Gsus4          G
  |  | | | | | | | |      | |  |  |  |  |  |  |  |  | |
  /  / / / / / / / /      / /  /  /  /  /  /  /  /  / /

|-2--2-2-2-2-2-2-2-----|----------------------------------|
|-2--2-2-2-2-2-2-2-----|----------------------------------|
|-4--4-4-4-4-4-4-4-----|--0----0--0--0--0--0--0--0--0-----|
|-4--4-4-4-4-4-4-4-0-0-|--9----9--9-10-10-10-10-10--9-----|
|-2--2-2-2-2-2-2-2-0-0-|-10---10-10-10-10-10-10-10-10-0-0-|
|-0--0-0-0-0-0-0-0-0-0-|--8-8--8--8--8--8--8--8--8--8-0-0-|


  Dsus2                   A/C#
  |   | | | | | |          | | |  |  |  |  |  |
  /   / / / / / /          / / /  /  /  /  /  /

|-----------------------|------------------------------|
|-7-7-7-7-7-7-7---------|------------------------------|
|-7-7-7-7-7-7-7-7s9-9-0-|-14--14-14-14-14-14-14-14-----|
|-0-0-0-0-0-0-0----
 Comments (click here to add a non-facebook comment)
Home | FAQs | Privacy | Terms | Contact
Top 100 Tab Sites