Give Kudos?
Are you sure you want to give kudos to EMRLDEYZS?

Add To Songbook?
Are you sure you want to add this song to your songbook?


3,434 bands | 16,528 songs
Search: Register FREE! | Login
Browse Songs:
Browse Bands:
Tool Panel
Discuss This Song

1 2 3 4 5



Allman Brothers - Soulshine (Solo)
Submitter: EMRLDEYZS (41) on 6/11/05
Month Views: 8 | Total Views: 4,280
Moderator: allman | Report This Song?
Song Tools

Comment

Songbook

Kudos

Show Chords

Print

SOLO 1:
                                                                   
                                                           
-------------------3---|----3--------3---------3----------|
-----------------3---3-|--6---6~-------6-3---3---6--------|
------------x-5b-------|-------------------5b-------5r--3-|
-----------------------|----------------------------------|
-----------------------|----------------------------------|
-----------------------|----------------------------------|

                                       
--------------------------------------|
--------------------------------------|
--5----3~-3------3-3--3------------15-|
-----5--------5-------------10/17-----|
--------------------------------------|
--------------------------------------|

                                          
-----------------------------------------|
--------16--18-----16--18----------------|
--17b----------17b--------17b-17r-15--17-|
-----------------------------------------|
-----------------------------------------|
-----------------------------------------|

                                            
-------------------------------------------|
-------------------------------------------|
------15-15--15--7/3/15-------15---15--17--|
--17-----------------------17--------------|
-------------------------------------------|
-------------------------------------------|

                                                                                
-----------------------18-15h18p15----|--15-------18---------------------------|
------------18---------------------18-|------18b-----18r---16h18-----16h-16/---|
--17b---17b----17b--------------------|---------------------------17-----------|
--------------------------------------|----------------------------------------|
--------------------------------------|----------------------------------------|
--------------------------------------|----------------------------------------|

                                                                             
--20r---18-20-18~-18~-18~-18~-20---|--20b-18-20~-----15r-13-----------------|
-----------------------------------|--------------------------13b-13r-11----|
-----------------------------------|-------------------------------------12-|
-----------------------------------|----------------------------------------|
-----------------------------------|----------------------------------------|
-----------------------------------|----------------------------------------|

  
-------|
--11---|
-------|
-------|
-------|
-------|



SOLO 2:


                                                               
|----------|----------------------------|---------------------------------|
|----------|----------18-------------18-|---------------------------------|
|------17b-|------17b----17b------17b---|--17b-17b17r--15-17--------------|
|----------|----------------------------|--------------------15~---15/0---|
|----------|----------------------------|---------------------------------|
|----------|----------------------------|---------------------------------|


                                                                      
---------------------------------|-----------------------------------|
----18---------------------------|-----------------------------------|
-------17r--15-18-----15-15~-----|------17r----15-18-----15--15~-----|
------------------17-------------|--------------------17-------------|
---------------------------------|-----------------------------------|
---------------------------------|-----------------------------------|

                                                                       
--18/-0---------------------|----15b-13-11----------------------------|
----------------------------|-----------------------------11--13--13b-|
---------------15-17b-------|-----------------10-10----12-------------|
-----------17---------------|-----------------------------------------|
----------------------------|-----------------------------------------|
----------------------------|-----------------------------------------|

                                                                          
-----------------------------------------|----------------------------18b|
--13r-11-----11--13--11---13b-13b-11--13-|------11-11--11--11~-----------|
---------12------------------------------|--12---------------------------|
-----------------------------------------|-------------------------------|
-----------------------------------------|-------------------------------|
-----------------------------------------|-------------------------------|

                                                                 
----18--18-----------18b---|--18b---18--18---------------15-----|
---------------------------|--------------------------13-----13b|
---------------------------|----------------------15------------|
---------------------------|------------------------------------|
---------------------------|------------------------------------|
---------------------------|------------------------------------|

                                                                               
------------------------------15-----|----15----------15--------15------------|
--13---------------------------------|----------------------------------------|
------15-12-----15--15~----------17b-|--------17b---------17b-------17b17--15-|
-------------15----------------------|----------------------------------------|
-------------------------------------|----------------------------------------|
-------------------------------------|----------------------------------------|

                                                 
------------------------------------------------|
---------------------------------------------18-|
---------15---15~-----------------15-----17b----|
--17--15----------17----15-17--15-----15--------|
------------------------------------------------|
------------------------------------------------|

                                           
--------------------------15--------------|
------------15-16--17-18-----15/-0--------|
--17r------------------------------15--17-|
------------------------------------------|
------------------------------------------|
------------------------------------------|


--------------------------------------------------------|-----------||
---------------------18b--18-16-------------------------|-----------||
------15-15--15-----------------15-18----15-15h18p15----|--15-------||
--17-------------17-------------------18-------------18-|-----------||
--------------------------------------------------------|-----------||
--------------------------------------------------------|-----------||
 Comments (click here to add a non-facebook comment)
Home | FAQs | Privacy | Terms | Contact
Top 100 Tab Sites