Give Kudos?
Are you sure you want to give kudos to jdomary?

Add To Songbook?
Are you sure you want to add this song to your songbook?


3,422 bands | 16,457 songs
Search: Register FREE! | Login
Browse Songs:
Browse Bands:
Tool Panel
Discuss This Song

1 2 3 4 5



Allman Brothers - Blue Sky (Intro)
Submitter: jdomary (10) on 7/30/03
Month Views: 26 | Total Views: 2,869
Moderator: allman | Report This Song?
Song Tools

Comment

Songbook

Kudos

Show Chords

Print

Blue Sky

Allman Brothers

Tabbed by: jdomary  

                            
e---0----------------7-9---12-9-------------------------------
b---0---------5-5/9------------9-------9----------------------
g---1-----4h6-------------------9--------9-9h11p9-------------
d---2-2/6-----------------------------------------9----Repeat-
a---2---------------------------------------------------------
E---0---------------------------------------------------------  
                                                                         
   E                D               A                     E
e--0----------------2---------------0---------------------0---
b--0----------------3---------------2---------------------0---
g--1----------------2---------------2---------------------1---
d--2----------------0---------------2---------------------2---
a--2----------------x---------------0---------------------2---
E--0----------------x---------------x---------------------0---


 Comments (click here to add a non-facebook comment)
Home | FAQs | Privacy | Terms | Contact
Top 100 Tab Sites