Give Kudos?
Are you sure you want to give kudos to aussief?

Add To Songbook?
Are you sure you want to add this song to your songbook?


3,053 bands | 13,685 songs
Search: Register FREE! | Login
Browse Songs:
Browse Bands:
Tool Panel
Discuss This Song

1 2 3 4 5





Alice Cooper - Only Women Bleed (Tab)
Submitter: aussief (172) on 10/2/09
Month Views: 332 | Total Views: 22,290
Moderator: jackshaw3 | Report This Song?
Song Tools

Comment

Songbook

Kudos

Show Chords

Print

Words and Music by Alice Cooper and Dick Wagner

INTRO

E|--7------7--------7-|------7-------7-|--5------5------5-|------5-------5---|
B|--------------------|----------------|------------------|------------------|
G|-----7-------7------|--7-------7-----|-----6------6-----|--6-------6-------|
D|--------------------|----------------|------------------|------------------|
A|--------------------|----------------|------------------|------------------|
E|--------------------|----------------|------------------|------------------|

E|-5-------5-------5--|-------5------5-|--3-----3-------3-|------3-------3---|
B|--------------------|----------------|------------------|------------------|
G|----5-------5-------|--5-------5-----|-----4------4-----|--4------4--------|
D|--------------------|----------------|------------------|------------------|
A|--------------------|----------------|------------------|------------------|
E|--------------------|----------------|------------------|------------------|

 G                   A 
Man's got his woman to take his seed 
 Am
He's got the power - oh 
G
She's got the need 
                             A 
She spends her life through pleasing up her man 
 Am                      G
She feeds him dinner or anything she can 
 F          C                 G
She cries alone at night too often 
Bm             Bbm                          Am
He smokes and drinks and don't come home at all 
C           G
Only women bleed 
            A
Only women bleed 
            Am      G 
Only women bleed~~~~~~~~~ 

G
Man makes your hair grey 
 A
He's your life's mistake 
 Am                            G
All you're really lookin' for is an even break 
G
He lies right at you 
A
You know you hate this game 
Am                                    G
He slaps you once in a while and you live and 

love in pain 
F          C                  G
She cries alone at night too often 
Bm             Bbm                          Am
He smokes and drinks and don't come home at all 

C           G
Only women bleed 
            A            
Only women bleed 
            Am     G
Only women bleed~~~~~~~ 

 Eb
Black eyes all of the time 
 Eb
Don't spend a dime 
 F             F/Eb
Clean up this grime 
    Bb         F7                 Bb
And you there down on your knees begging me 
 
please come 
 Eb   Bb  G      D    G     C  D   G   D   G  C D 
Watch me bleed.~~~~~~~~~    /  /   /   /   /  / /
G
Only women bleed 
            A
Only women bleed 
            Am
Only women bleed 
            G
Only women bleed 
G
Only women bleed 
            A 
Only women bleed 
            Am      G
Only women bleed ~~~~~~~~~~ 

An F. K. Tab,, Enjoy!! 
  

 
 Comments (click here to add a non-facebook comment)
Home | FAQs | Privacy | Terms | Contact
Top 100 Tab Sites