Give Kudos?
Are you sure you want to give kudos to aussief?

Add To Songbook?
Are you sure you want to add this song to your songbook?


3,412 bands | 16,395 songs
Search: Register FREE! | Login
Browse Songs:
Browse Bands:
Tool Panel
Discuss This Song

1 2 3 4 5





Adele - Someone Like You (Tab)
Submitter: aussief (67) on 3/12/12 1 comment
Month Views: 17 | Total Views: 10,088
Help! We need a moderator for this artist. | Report This Song?
Song Tools

Comment

Songbook

Kudos

Show Chords

Print

  Words and Music by Daniel Wilson and Adele

   Bb                                     Dm
E|-----1---------1---------1--------1---|-----1--------1--------1--------1---|
B|---3---3-----3---3----3----3----3---3-|---3---3----3---3----3---3----3---3-|
G|-3--------3---------3---------3-------|-2--------2--------2--------2-------|
D|--------------------------------------|------------------------------------|
A|--------------------------------------|------------------------------------|
E|--------------------------------------|------------------------------------|

   Gm                                   Eb
E|-----3-------3---------3--------3---|-----3--------3--------3---------3----|
B|---3---3---3----3----3---3----3---3-|---4---4----4---4----4----4----4----4-|
G|-0-------0---------0--------0-------|-3--------3--------3---------3--------|
D|------------------------------------|--------------------------------------|
A|------------------------------------|--------------------------------------|
E|------------------------------------|--------------------------------------|

  Bb                Dm
I heard that you're settled down
         Gm                      Eb
That you found a girl and you're married now.
                  Dm
I heard that your dreams came true.
          Gm                       Eb
Guess she gave you things I didn't give to you.
Bb                         Dm
Old friend, why are you so shy?
           Gm                  Eb
Ain't like you to hold back or hide from the light.

F                            Gm
I hate to turn up out of the blue uninvited
      Eb
But I couldn't stay away, I couldn't fight it.
       F                          Gm7
I had hoped you'd see my face and that you'd be reminded
         Eb          F
That for me it isn't over.

Bb               F                 Gm
Never mind, I'll find someone like you
Eb     Bb              F        Gm  Eb
I wish nothing but the best for you two
         Bb        F
Don't forget me, I beg
    Gm         Eb
I remember you said,
               Bb                F                    Gm
"Sometimes it lasts in love but sometimes it hurts instead,
Eb           Bb                 F                    Gm
Sometimes it lasts in love but sometimes it hurts instead, "
Eb
Yeah

Bb               Dm
You know how the time flies
     Gm                Eb
Only yesterday was the time of our lives
        Bb
We were born and raised
      Dm
In a summer haze
      Gm                 Dm
Bound by the surprise of our glory days


Bb                F                Gm
Never mind, I'll find someone like you
       Bb              F        Gm  Eb
I wish nothing but the best for you two
        Bb         F
Don't forget me, I beg
   Gm          Eb
I remember you said,
               Bb                F                    Gm
"Sometimes it lasts in love but sometimes it hurts instead."
Eb
Yeah

Bb               F                 Gm
Never mind, I'll find someone like you
        Bb             F        Gm  Eb
I wish nothing but the best for you two
       Bb          F
Don't forget me, I beg
   Gm          Eb
I remember you said,
               Bb                F                   Gm
"Sometimes it lasts in love but sometimes it hurts instead,
              Bb                F                  Gm
Sometimes it lasts in love but sometimes it hurts instead."
Eb
Yeah 

  An F. K. Tab,,,, Enjoy!!!!!

  

 Comments (click here to add a non-facebook comment)
Nice job. KK.
-kraziekhat | 3/12/2012
Home | FAQs | Privacy | Terms | Contact
Top 100 Tab Sites