Give Kudos?
Are you sure you want to give kudos to EMRLDEYZS?

Add To Songbook?
Are you sure you want to add this song to your songbook?


3,420 bands | 16,455 songs
Search: Register FREE! | Login
Browse Songs:
Browse Bands:
Tool Panel
Discuss This Song

1 2 3 4 5



AC/DC - You Shook Me All Night Long (Intro)
Album: Back In Black (1980)
Submitter: EMRLDEYZS (107) on 2/6/07
Month Views: 10 | Total Views: 4,153
Moderator: jackshaw3 | Report This Song?
Song Tools

Comment

Songbook

Kudos

Show Chords

Print

Gtr I (E A D G B E) - 'Untitled'

 4/4
  Gtr I
  Q  E E E E E E    E  E E E E E E E   H.      E E
|-3------------5-|-(5)-3-3---3-3-----|-2---------2-|
|-3------------3-|-(3)-3-3---3-3-----|-3---------3-|
|-0------------0-|-(0)-0-0---0-0-----|-2---------2-|
|-0--0-0-0-0-0-0-|--0------0-----0-0-|-0-------3-0-|
|----------------|-------------------|-------------|
|----------------|-------------------|-------------|


  +Q.   E E E E E   Q  E E E E E E    E  E E E E E E E
|-(2)-------------|-3------------5-|-(5)-3-3---3-3-----|
|-(3)-------3-----|-3------------3-|-(3)-3-3---3-3-----|
|-(2)-------------|-0------------0-|-(0)-0-0---0-0-----|
|-(0)---3h4---3-0-|-0--0-0-0-0-0-0-|--0------0-----0-0-|
|-----------------|----------------|-------------------|
|-----------------|----------------|-------------------|


  W          +H.      Q    Q  Q  Q  E E
|-2--------|-(2)---------|-3----------3-|
|-3--------|-(3)---------|-3----------3-|
|-2--------|-(2)---------|-0----------0-|
|-0--------|-(0)---------|-0------------|
|----------|-------------|------------3-|
|----------|-------------|-3------------|


  +E  E E E E E E E   +E  E Q  Q  E E   +E  E E E E E E  E
|-(3)-3-3---3---3-2-|-(2)-2---------3-|-(3)-3-2---3---2-------|
|-(3)-3-3---3---3-3-|-(3)-3---------3-|-(3)-3-3---3---3-------|
|-(0)-0-0---0---0-2-|-(2)-2---------0-|-(0)-0-2---0---2-------|
|-------0-------0-0-|-(0)-0---------0-|-(0)-0-0---0---0-------|
|-(3)-3-----3-------|-----------------|-----------------------|
|-------3-------3---|---------------3-|-(3)-3-----3-----------|


Duration Legend
---------------
W - whole H - half Q - quarter E - 8th S - 16th T - 32nd X - 64th a - acciaccatura
+ - note tied to previous . - note dotted .. - note double dotted
Uncapitalized letters represent notes that are staccato (1/2 duration)
Irregular groupings are notated above the duration line
Duration letters will always appear directly above the note/fret number it represents the
duration for.  Duration letters with no fret number below them represent rests.  Multi-
bar rests are notated in the form Wxn, where n is the number of bars to rest for.  Low
melody durations appear below the staff

Tablature Legend
----------------
 h   - hammer-on
 p   - pull-off
 b   - bend
 pb  - pre-bend
 r   - bend release (if no number after the r, then release immediately)
 /\  - slide into or out of (from/to nowhere)
 s   - legato slide
 S   - shift slide
n  - natural harmonic
[n]  - artificial harmonic
n(n) - tapped harmonic
 ~   - vibrato
 tr  - trill
 T   - tap
 TP  - trem. picking
 PM  - palm muting
\n/  - tremolo bar dip n  amount to dip
 \n  - tremolo bar down
 n/  - tremolo bar up
/n\  - tremolo bar inverted dip
    - hold bend also acts as connecting device for hammers/pulls
   - volume swell (louder/softer)
 x   - on rhythm slash represents muted slash
 o   - on rhythm slash represents single note slash

Misc Legend
-----------
 |  - bar
||  - double bar
||o - repeat start
o|| - repeat end
|  - double bar (ending)
 :  - bar (freetime)
 $  - Segno
 &  - Coda
Tempo markers - E/E./Q/Q./H/H.  BPM(8/16s8/s16), where s8  swing 8ths, s16  swing 16ths
 Comments (click here to add a non-facebook comment)
Home | FAQs | Privacy | Terms | Contact
Top 100 Tab Sites