Give Kudos?
Are you sure you want to give kudos to Rondo Fondu?

Add To Songbook?
Are you sure you want to add this song to your songbook?


3,022 bands | 13,436 songs
Search: Register FREE! | Login
Browse Songs:
Browse Bands:
Tool Panel
Discuss This Song

1 2 3 4 5





AC/DC - Thunderstruck (Tab)
Album: The Razors Edge (1990)
Submitter: Rondo Fondu (22) on 5/25/04
Month Views: 55 | Total Views: 5,668
Moderator: jackshaw3 | Report This Song?
Song Tools

Comment

Songbook

Kudos

Show Chords

Print

Thunderstruck                              
Words and Music by Angus Young & Malcolm Young


B5    x244xx   
A5    x022xx 
E5    022xxx  
A     x0222x        
D5/A  x00xxx   
B5VII 799xxx

Gtr I    - Angus Young - Thunderstruck Theme
Gtr II   - Malcolm Young - Rhythm
Gtr III  - Angus Young - Rhythm
Gtr IV   - Angus Young - Solos

All Guitars Standard Tuning

 Intro
  Moderate Rock Q=133
  N.C.
 4/4
              Gtr I
  H..       S S     S S S S S S S S S S S S S S S S
|---------------||----------------------------------|
|-------------0h||o=4p0h7p0h4p0h7p0h4p0h7p0h4p0h7p0h|
|---------------||----------------------------------|
|---------------||----------------------------------|
|---------------||o---------------------------------|
|---------------||----------------------------------|


  S S S S S S S S S S S S S S S S
|-----------------------------------|
|-4p0h7p0h4p0h7p0h4p0h7p0h4p0h7p0h==|
|-----------------------------------|
|-----------------------------------|
|-----------------------------------|
|-----------------------------------|


  S S S S S S S S S S S S S S S S   S S S S S S S S S S S S S S S S
|---------------------------------|------------------------------------||
|-5p0h8p0h5p0h8p0h5p0h8p0h5p0h8p0h|=5p0h8p0h5p0h8p0h5p0h8p0h5p0h8p0h==o||
|---------------------------------|------------------------------------||
|---------------------------------|------------------------------------||
|---------------------------------|-----------------------------------o||
|---------------------------------|------------------------------------||


     S S  S S S S  S S S S S S S S S S   S S S S S S S S S S S S S S S S  10x
||-------------------------------------|-----------------------------------||
||o-12p0h10p0h9p0h10p0h9p0h7p0h9p0h5p0h|=7p0h4p0h5p0h4p0h5p0h4p0h5p0h4p0h=o||
||-------------------------------------|-----------------------------------||
||-------------------------------------|-----------------------------------||
||o------------------------------------|----------------------------------o||
||-------------------------------------|-----------------------------------||


    B5
     S S  S S S S  S S S S S S S S S S   S S S S S S S S S S S S S S S S   4x
||-------------------------------------|-----------------------------------||
||o-12p0h10p0h9p0h10p0h9p0h7p0h9p0h5p0h|=7p0h4p0h5p0h4p0h5p0h4p0h5p0h4p0h=o||
||-------------------------------------|-----------------------------------||
||-------------------------------------|-----------------------------------||
||o------------------------------------|----------------------------------o||
||-------------------------------------|-----------------------------------||
|
|   Gtr II
|    S S  e   e    S e   S e   e   e     S S e   e   S e   S e   e   e     4x
||-------------------------------------|-----------------------------------||
||o------------------------------------|----------------------------------o||
||-----4------4----------4-----4-------|---4-----4---------4-----4---------||
||---4-4--4---4------4-----4---4-------|-4-4-4---4-----4-----4---4---------||
||o-------2--------2-2-----2-------2---|-----2-------2-2-----2-------2----o||
||-------------------------------------|-----------------------------------||


   Verse 1
    B5
     S S  S S S S  S S S S S S S S S S   S S S S S S S S S S S S S S S S   8x
||-------------------------------------|-----------------------------------||
||o-12p0h10p0h9p0h10p0h9p0h7p0h9p0h5p0h|=7p0h4p0h5p0h4p0h5p0h4p0h5p0h4p0h=o||
||-------------------------------------|-----------------------------------||
||-------------------------------------|-----------------------------------||
||o------------------------------------|----------------------------------o||
||-------------------------------------|-----------------------------------||
|
|    S S  e   e    S e   S e   e   e     S S e   e   S e   S e   e   e     8x
||-------------------------------------|-----------------------------------||
||o------------------------------------|----------------------------------o||
||-----4------4----------4-----4-------|---4-----4---------4-----4---------||
||---4-4--4---4------4-----4---4-------|-4-4-4---4-----4-----4---4---------||
||o-------2--------2-2-----2-------2---|-----2-------2-2-----2-------2----o||
||-------------------------------------|-----------------------------------||


    B5                 A5  E5
     S S  S S S S  S S S S S S S S S S
||-------------------------------------|
||o-12p0h10p0h9p0h10p0h9p0h7p0h9p0h5p0h|
||-------------------------------------|
||-------------------------------------|
||o------------------------------------|
||-------------------------------------|
|
|    S S  e   e    S e   S e   e   e
||-------------------------------------|
||o------------------------------------|
||-----4------4----------4-----4-------|
||---4-4--4---4------4-----4---4-------|
||o-------2--------2-2-----2-------2---|
||-------------------------------------|
|
|   Gtr III
|    ~~~
|    H                 S S E   Q
||-------------------------------------|
||o------------------------------------|
||---4---------------------------------|
||---4-----------------2-2-------------|
||o--2-----------------0-0h2-----------|
||-------------------------0-----------|


      A               E5
  S S  S  S S  S  S S S S S S S S S S   4x
|---------------------------------------||
|-7p0h=4p=0h5p=0h=4p0h5p0h4p0h5p0h4p0h=o||
|---------------------------------------||
|---------------------------------------||
|--------------------------------------o||
|---------------------------------------||
|
| S S  e    e     S e   S e   e   e     4x
|---------------------------------------||
|--------------------------------------o||
|---4-------4-----------4-----4---------||
|-4-4--4----4-------4-----4---4---------||
|------2----------2-2-----2-------2----o||
|---------------------------------------||
|
| E    E    S  E    S H                 4x
|---------------------------------------||
|-----(2)-----(2)----------------------o||
|------2-------2------------------------||
|------2-------2------2-----------------||
|------0-------0------2----------------o||
|---------------------0-----------------||


   S S  S S S S  S S S S S S S S S S   S S S S S S S S S S S S S S S S
|------------------------------------|---------------------------------|
|-12p0h10p0h9p0h10p0h9p0h7p0h9p0h5p0h|=7p0h4p0h5p0h4p0h5p0h4p0h5p0h4p0h|
|------------------------------------|---------------------------------|
|------------------------------------|---------------------------------|
|------------------------------------|---------------------------------|
|------------------------------------|---------------------------------|
|
|  S S  e   e    S e   S e   e   e     S S e   e   S e   S e   e   e
|------------------------------------|---------------------------------|
|------------------------------------|---------------------------------|
|----4------4----------4-----4-------|---4-----4---------4-----4-------|
|--4-4--4---4------4-----4---4-------|-4-4-4---4-----4-----4---4-------|
|-------2--------2-2-----2-------2---|-----2-------2-2-----2-------2---|
|------------------------------------|---------------------------------|
|
|  W                                   W
|------------------------------------|---------------------------------|
|------------------------------------|---------------------------------|
|------------------------------------|---------------------------------|
|------------------------------------|---------------------------------|
|------------------------------------|---------------------------------|
|------------------------------------|---------------------------------|


  B5
   S S  S S S S  S S S S S S S S S S
|----------------------------------------|
|-12p0h10p0h9p0h10p0h9p0h7p0h9p0h5p0h====|
 Comments (click here to add a non-facebook comment)
Home | FAQs | Privacy | Terms | Contact
Top 100 Tab Sites