Give Kudos?
Are you sure you want to give kudos to EMRLDEYZS?

Add To Songbook?
Are you sure you want to add this song to your songbook?


3,420 bands | 16,455 songs
Search: Register FREE! | Login
Browse Songs:
Browse Bands:
Tool Panel
Discuss This Song

1 2 3 4 5



AC/DC - Back In Black (Intro)
Album: Back In Black (1980)
Submitter: EMRLDEYZS (107) on 3/15/07
Month Views: 9 | Total Views: 4,182
Moderator: jackshaw3 | Report This Song?
Song Tools

Comment

Songbook

Kudos

Show Chords

Print

Back In Black Intro
  Q92

 4/4
  Gtr I
|----x-----x--|----x------||------------------|
|----x-----x--|----x------||o-----3-3-3-------|
|----x-----x--|----x------||------2-2-2---2-2-|
|-x-----x-----|-x---------||--2---0-0-0---2-2-|
|-x-----x-----|-x---------||o-2-----------0-0-|
|-x-----x-----|-x---------||--0---------------|


|-------3-0---------------|-----------------|---------------------------||
|-----------3-0-----------|-----3-3-3-------|--------------------------o||
|-2-------------2b4r(2)p0-|-----2-2-2---2-2-|-2-------------------------||
|-2-----------------------|-2---0-0-0---2-2-|-2-------------------------||
|-0-----------------------|-2-----------0-0-|-0--2----2----2----2------o||
|-------------------------|-0---------------|------4----5----6----7\----||
 Comments (click here to add a non-facebook comment)
Home | FAQs | Privacy | Terms | Contact
Top 100 Tab Sites