Give Kudos?
Are you sure you want to give kudos to EMRLDEYZS?

Add To Songbook?
Are you sure you want to add this song to your songbook?


3,434 bands | 16,528 songs
Search: Register FREE! | Login
Browse Songs:
Browse Bands:
Tool Panel
Discuss This Song

1 2 3 4 5



3 Doors Down - When I'm Gone (Intro)
Album: Away From The Sun (2002)
Submitter: EMRLDEYZS (41) on 9/8/04
Month Views: 5 | Total Views: 3,448
Moderator: EMRLDEYZS | Report This Song?
Song Tools

Comment

Songbook

Kudos

Show Chords

Print

 Am                              Cmaj7           G
 4/4
Guitar I
|-------------------------------|--------------------------|
|-------------------------------|---------5-(5)---5-(5)----|
|---------------------------4h5-|-5h7----------------------|
|-------------------------------|--------------------------|
|-------------------------------|--------------------------|
|-------------------------------|--------------------------|

Guitar II
|-------------------------------|--------------------------|
|-------0h1-----0h1---0h1-------|---------0h=1----3-(3)----|
|-----2-----2-------2-----2-----|-------0-------0-0-(0)----|
|---2---------2-------------2---|-----2---------0-0-(0)----|
|-0-----------------------------|---3-------------2-(2)----|
|-------------------------------|-----------------3-(3)----|


  Am                                    Cmaj7       G
Guitar I
|-------------------------------------|--------------------------||
|-(5)---------------------------------|--------------------------||
|---------5p4---4-(4)-------5h7-------|-5-----------4-(4)--------||
|-------------5-----------------------|--------------------7-----||
|-------------------------------------|--------------------------||
|-------------------------------------|--------------------------||

Guitar II
|-------------------------------------|--------------------------||
|---------0h1------3------1-------0---|-------0h1---3-(3)--1p0---||
|-------2-----2-------2-------2-----0-|-----0-----0-0-(0)------0-||
|-----2---------2-------2-------2-----|---2---------0-(0)--------||
|--0----------------------------------|-3-----------2-(2)--------||
|-------------------------------------|-------------3-(3)--------||
 Comments (click here to add a non-facebook comment)
Home | FAQs | Privacy | Terms | Contact
Top 100 Tab Sites